» » »

50s Bass tabs (ver.1)

Artists:  A B C D E F G H I J K L M N O P Q R S T U V W X Y Z # 

50s Bass tabs (ver.1)

Unsigned
Rating:
0/5 (0 votes)

Hard to play? Try these video lessons and learn fast.
                (Riff)
G|---------------------------------------|
D|--------9-12-9--------------9-12-9-----|
A|---9-12--------12-9----9-12--------12-9|
E|10------------------10-----------------|

G|--------9-12-9------------------------------|
D|---9-12--------12-9-------11-14-11----9-12-9|
A|10------------------10-12----------10-------|
E|--------------------------------------------|

Repeat 8x
            
Hard to play? Try these video lessons and learn fast. | Correct




comments powered by Disqus
↑ Back to top | Tablatures and chords are parodies/interpretations of the original songs. You may use it for private study, scholarship, research or language learning purposes only