» » »

Unsigned, 3 To Many-My Fault Tabs (ver.1)

Artists:  A B C D E F G H I J K L M N O P Q R S T U V W X Y Z # 

3 To Many-My Fault Tabs (ver.1)

Unsigned Tabs
 Rating:
4/5 (4 votes)
3 To Many-My Fault lessons Tabs too difficult? Try these video lessons and learn fast
                This song is best played with a capo on the 3rd fret

Intro
-|----------------------------------------------------------------------------
-|---------------------------3--3--3-3-0--------------------------------------
-|-----0---0h4-----2---0-----0--0--0-0---2-0----------------------------------
-|-------0-----------0---2-2---2--2--3---0---x-3------------------------------
-|---2-----------0-------2-2---2--2--2----------------------------------------
-|-3-----------2---------0-0---0--0-------------------------------------------
                                                                              
-|-----------------3----------------------------------------------------------
-|-3-3-3-33-33-3-3-3----------------------------------------------------------
-|-2-2-2-20-00-0-0-2----------------------------------------------------------
-|-0-0-0-03-33-3-3-0----------------------------------------------------------
-|--------2-22-2-2-0----------------------------------------------------------
-|-----------------2----------------------------------------------------------
Now play these chords in this order (you can pretty much use any strumming pattern you want)
G   Dadd9  Emin/G  Cadd9 

 Verse                                                                        

-|-----------------------------------------------------------------------------
-|-----------------------------------------------------------------------------
-|-------------5------7--------------------------------------------------------
-|-5-----2-----5------7------x-2-----------------------------------------------
-|-5-x-8-2-x-8-3-x-8--5-x-8----------------------------------------------------
-|-3-----0---------------------------------------------------------------------
                                                                              

-|------------------------------------------------------------------------------
-|------------------------------------------------------------------------------
-|-5------7---------------------------------------------------------------------
-|-5------7-----5------x-2------------------------------------------------------
-|-3-x-4--5-x-4-5-x-8-----------------------------------------------------------
-|--------------3---------------------------------------------------------------
                                                                              

-|-----------------------------------------------------------------------------
-|-----------------------------------------------------------------------------
-|-5------7-------------5------7-----------------------------------------------
-|-5------7------2------5------7-----------------------------------------------
-|-3-x-4--5-x-4--2-x-8--3-x-8--5-x-8-------------------------------------------
-|---------------0-------------------------------------------------------------
 Chorus                                                                       

-|----------------------------------------------------------------------------
-|----------------------------------------------------------------------------
-|--------7-------------5-------------7------5--------------------------------
-|-5------7------2------5------5------7------5-----x-2------------------------
-|-5-x-8--5-x-8--2-x-8--3-x-8--5-x-8--5-x-8--3-x-8----------------------------
-|-3-------------0-------------3----------------------------------------------
 Bridge                                                                       

-|----------------------------------------------------------------------------
-|-3---3---3---3---3---3---3-0------------------------------------------------
-|-0---0---2-2-2-2-2-0-2-0-0---2-0--------------------------------------------
-|-0-0-0-0---0---0---2---2-2---0---x-3----------------------------------------
-|---2---2-----------3---3-3--------------------------------------------------
-|---3---3--------------------------------------------------------------------
                                                                              

-|----------------------------------------------------------------------------
-|-3-3-333-3-3-333------------------------------------------------------------
-|-2-2-222-2-2-222------------------------------------------------------------
-|-0-0-000-0-0-000------------------------------------------------------------
-|---------0-0-000------------------------------------------------------------
-|---------2-2-222------------------------------------------------------------
            
Submit corrections

comments powered by Disqus
↑ Back to top | Unsigned Tabs for 3 To Many-My Fault. Lyrics for acoustic guitar and electric guitar. Tablatures and chords are parodies/interpretations of the original songs. You may use it for private study, scholarship, research or language learning purposes only