» » »

Unsigned, 3 To Many - Drive All Night Bass tabs (ver.1)

Artists:  A B C D E F G H I J K L M N O P Q R S T U V W X Y Z # 

3 To Many - Drive All Night Bass tabs (ver.1)

Unsigned Tabs
Rating:
0/5 (0 votes)
Hard to play? Try these video lessons and learn fast.
                -|----------------------------------------------------------------------------
-|----------------------------------------------------------------------------
-|----------------------------------------------------------------------------
-|---------------x-2----------------------------------------------------------
-|----------------------------------------------------------------------------
-|-5-x-28--0-x-4--------------------------------------------------------------
                                                                              

-|----------------------------------------------------------------------------
-|----------------------------------------------------------------------------
-|----------------------------------------------------------------------------
-|----------------------x-3---------------------------------------------------
-|-5-x-8--7-x-8---------------------------------------------------------------
-|---------------5-x-16-------------------------------------------------------
                                                                              

-|----------------------------------------------------------------------------
-|----------------------------------------------------------------------------
-|----------------------------------------------------------------------------
-|---------------7-x-16-------------------------------------------------------
-|-5-x-8--7-x-8---------------------------------------------------------------
-|----------------------------------------------------------------------------
                                                                              

-|----------------------------------------------------------------------------
-|----------------------------------------------------------------------------
-|----------------------------------------------------------------------------
-|----------------------------------------------------------------------------
-|-5-x-8--7-x-8--9-x-8---------5-x-8--7-x-8-----------------------------------
-|----------------------7-x-8----------------9-x-4--7-x-4--5------------------
 Verse                                                                        

-|----------------------------------------------------------------------------
-|----------------------------------------------------------------------------
-|----------------------------------------------------------------------------
-|-----------------------------x-2--------------------------------------------
-|----------------------5-x-8-------------------------------------------------
-|-5-x-8--0-x-8--2-x-8--------------------------------------------------------
                                                                              

-|----------------------------------------------------------------------------
-|----------------------------------------------------------------------------
-|----------------------------------------------------------------------------
-|----------------------------------------------------------------------------
-|-2-x-8--5-x-8---------7-x-8-------------------------------------------------
-|---------------5-x-8--0-----------------------------------------------------
                                                                              

-|----------------------------------------------------------------------------
-|----------------------------------------------------------------------------
-|----------------------------------------------------------------------------
-|----------------------------------------------------------------------------
-|-2-x-8--4-x-8--5-x-8--7-x-8-------------------------------------------------
-|----------------------------------------------------------------------------
 Chorus                                                                       

-|----------------------------------------------------------------------------
-|----------------------------------------------------------------------------
-|----------------------------------------------------------------------------
-|------------------------------------x-2-------------------------------------
-|-0-x-8--2-x-8--4-x-8--5-x-4--7-x-4------------------------------------------
-|----------------------------------------------------------------------------
 Bridge                                                                       

-|----------------------------------------------------------------------------
-|----------------------------------------------------------------------------
-|----------------------------------------------------------------------------
-|--------------------------------x-2-----------------------------------------
-|---------5--5--5--2--2--2--5--7---------------------------------------------
-|-5--5--5--------------------------------------------------------------------
                                                                              

-|----------------------------------------------------------------------------
-|----------------------------------------------------------------------------
-|----------------------------------------------------------------------------
-|----------------------------------------------------------------------------
-|-------5-x-8--2-x-8--5-x-4--7-x-4-------------------------------------------
-|-5-x-8----------------------------------------------------------------------
            

comments powered by Disqus
↑ Back to top | Unsigned Bass for 3 To Many - Drive All Night. Lyrics for acoustic guitar and electric guitar. Tablatures and chords are parodies/interpretations of the original songs. You may use it for private study, scholarship, research or language learning purposes only