» » »

3rd Degree Burn- Get Up Tabs (ver.1)

Artists:  A B C D E F G H I J K L M N O P Q R S T U V W X Y Z # 

3rd Degree Burn- Get Up Tabs (ver.1)

Unsigned
Rating:
0/5 (0 votes)

Hard to play? Try these video lessons and learn fast.
                Intro
e-----------------------------------------------------
B-----------------------------------------------------
G----------------------------------------------------- X4
D-----------------------------------------------------
A-----------------------------------------------------
E-0-0-0-0-0-0-0-0-1-1-1-1-1-1-1-1-3p1p0

On last time of Intro:

e------------------------------------
B------------------------------------
G------------------------------------
D-------------------------------------
A-------------------------------------
E-3-3-3-3-3-3-1-1-1-1-1-1-0~

Chorus:

e---------------------------
B--------------------------
G--------------------------
D---------------------------X6
A-0-0--0-0--1-1--3-1-0
E-0-0--0-0--1-1--3-1-0

Verses:

e------------------------------------------------------------------------------------------------------------------------------
B------------------------------------------------------------------------------------------------------------------------------
G------------------------------------------------------------------------------------------------------------------------------
D-----------------------------------------------------------------------------------------------------------------------------
A-0-0-0-3-3-3-2-2-2-0~14~14-14-14-0-0-0-0-3-3-3-2-2-2-0~14~14-14-14-0-0-0-3-0-3-2-0-2-2-0-0-0-0-0-3~2~0~
E-0-0-0-3-3-3-2-2-2-0~14~14-14-14-0-0-0-0-3-3-3-2-2-2-0~14~14-14-14-0-0-0-3-0-3-2-0-2-2-0-0-0-0-0-3~2~0~



Order:

Intro
Chorus
Verse 1
Chorus
Verse 2
Chorus X3
            
Hard to play? Try these video lessons and learn fast. | Correct




comments powered by Disqus
↑ Back to top | Tablatures and chords are parodies/interpretations of the original songs. You may use it for private study, scholarship, research or language learning purposes only