» » »

Unsigned, 3mt - Nisserock Bass tabs (ver.1)

Artists:  A B C D E F G H I J K L M N O P Q R S T U V W X Y Z # 

3mt - Nisserock Bass tabs (ver.1)

Unsigned Tabs
 Rating:
4/5 (4 votes)
3mt - Nisserock lessons Tabs too difficult? Try these video lessons and learn fast
                BAND-3MT
SONG-NISSEROCK

INTRO:

G|------------------------
D|------------------------             X1
A|------------------------
E|3-3-3-3-3-3-3-3-3-3-3---

VERSE:

G|----------------------------
D|----------------------------          X20
A|-------3-3-1----------------
E|3-3-3-3------3-3-3-3-3-1----

OUTRO:

G|-----------------------------------
D|-----------------------------------       X1
A|-----------------------------------
E|3-3-3-3-3-3-3-3-3-3-3-3-3-3-3-3-3-3

HERE IS ANOTHER VERSION(EASY VERSION)

G|-------------------------------------
D|-------------------------------------      WHOLE THE SONG
A|------------------------------------1
E|3-3-3-3-3-3-3-3-3-3-3-3-3-3-3-3-3-3--

ORDER:
INTRO X1
VERSE X20 (VERY FAST)
CHORUS X5
OUTRO  X1
            
Submit corrections

comments powered by Disqus
↑ Back to top | Unsigned Bass for 3mt - Nisserock. Lyrics for acoustic guitar and electric guitar. Tablatures and chords are parodies/interpretations of the original songs. You may use it for private study, scholarship, research or language learning purposes only