» » »

Unsigned, 2thumbsdown - Dont No Bass tabs (ver.1)

Artists:  A B C D E F G H I J K L M N O P Q R S T U V W X Y Z # 

2thumbsdown - Dont No Bass tabs (ver.1)

Unsigned Tabs
 Rating:
4/5 (4 votes)
2thumbsdown - Dont No lessons Tabs too difficult? Try these video lessons and learn fast
1
                verse:
       ---------------------     --------------------------------     
       -----4--------6------ X2  --------------------------------
       -------4--666--------     ------666--444-----------66--4--
       -444------------6----     -444------------666--444--------

Chorus:
        ---------------------------
        --4444--------------6------
        -------4---4------6---6----
        ---------4----6666---------

Bridge: 
        ----6-5-4----3-2-1--11-------33--------
        -66-------44-----------1-2-3----4-5-6--
        ---------------------------------------
        ---------------------------------------




Its pretty easy, plus it sounds good. it sux tho, hah makes sense so does our band! what u think
            
Submit corrections

comments powered by Disqus
↑ Back to top | Unsigned Bass for 2thumbsdown - Dont No. Lyrics for acoustic guitar and electric guitar. 1 Tablatures and chords are parodies/interpretations of the original songs. You may use it for private study, scholarship, research or language learning purposes only