» » »

1 Fish 2 Fish Blue Fish - 2% Milk Tabs (ver.1)

Artists:  A B C D E F G H I J K L M N O P Q R S T U V W X Y Z # 

1 Fish 2 Fish Blue Fish - 2% Milk Tabs (ver.1)

Unsigned
Rating:
0/5 (0 votes)

Hard to play? Try these video lessons and learn fast.
                E]------------------------------------------------------------------
B]------------------------------------------------------------------
G]------------------------------------------------------------------
D]---9-9-9---7-7---5---------5-5-0---------5-5-0--------------------
A]---7-7-7---5-5---3---5-5---3-3-0---5-5---3-3-0---5-5--------------
E]---------------------3-3-----------3-3-----------3-3--------------
           You can repeat as many times as u want

        
E]------------------------------------------------------------------
B]------------------------------------------------------------------
G]------------------------------------------------------------------
D]-----------7-7---9-9-9---7-7--------------------------------------
A]---7-7-7---5-5---7-7-7---5-5--------------------------------------
E]---5-5-5----------------------------------------------------------
             Repeat as many times as u want

                      have fun
            
Hard to play? Try these video lessons and learn fast. | Correct




comments powered by Disqus
↑ Back to top | Tablatures and chords are parodies/interpretations of the original songs. You may use it for private study, scholarship, research or language learning purposes only