» » »

1-11 Bass tabs (ver.1)

Artists:  A B C D E F G H I J K L M N O P Q R S T U V W X Y Z # 

1-11 Bass tabs (ver.1)

Unsigned
Rating:
0/5 (0 votes)

Tabs too difficult? Try these video lessons and learn fast.
                Please rate this. Thanks

Intro
------------------    x8
------------------
--7-7-7-0-3-4-5---
------------------

Verse
-----------------------     x4
-----------0-3-4-5-----
------5-6-7--------5---
--7-7------------------

Chorus
--------------------    x4
--------------------
--3-3---------4-5---
------5-5-7-7-------

Verse
------------------------     x4
------------0-3-4-5-----
------5-6-7---------5---
--7-7-------------------

Chorus               x4
----------------------|---------------
----------------------|---------------  ~ = hold for about 2 seconds
--3-3---------4-(5)---|--5~-5-5-5-5---
------5-5-7-7---------|---------------
fourth time through hold 5 with () for about 2 seconds

----------6-6-5-5-0-1-2-3---------3-3-5-------------------------------------------
--7-7-5-5-----------------1-2-3-4-------3---4-5-6-6-6-6-4-4-4-4-1-1-1-1-0-2-3-4---
------------------------------------------5---------------------------------------

--------------------------------    x1
--------------------------------
--7-7-5-5-6-6-4-4-3-3-2-2-0-0---
--------------------------------

Chorus
--------------------     x4
--------------------
--3-3---------4-5---
------5-5-7-7-------

Verse
------------------------     x4
------------0-3-4-5-----
------5-6-7---------5---
--7-7-------------------

Chorus
--------------------    x4
--------------------
--3-3---------4-5---
------5-5-7-7-------

Outro
------------------    x4
------------------
--7-7-4-5---------
----------6-5-4---
end on the 6
            
Tabs too difficult? Try these video lessons and learn fast.


comments powered by Disqus
↑ Back to top | Tablatures and chords are parodies/interpretations of the original songs. You may use it for private study, scholarship, research or language learning purposes only