» » »

Unsigned, 1-10 Bass tabs (ver.1)

Artists:  A B C D E F G H I J K L M N O P Q R S T U V W X Y Z # 

1-10 Bass tabs (ver.1)

Unsigned Tabs
Rating:
0/5 (0 votes)
1-10 lessons Tabs too difficult? Try these video lessons and learn fast
                Please rate this tab...thanks.

~ = hold for about 1/2 a second

Intro         x3
------3------2-|-----3------3-2-------------
--3-4---02-3---|-3-4---02-3----4-3-2--------   <---02 = 0 and 2 played quickly
---------------|---------------------4-3-2--
---------------|----------------------------

Verse              x3
--------------------|---------------
--------------------|-5-4-3~--------  
--1-1-1~-1--1-1-3-4-|-------5-43-2--   <--43 = 4 and 3 played quickly
--------------------|---------------

Chorus
---------------------
------5-6------------
--5-5-----7-6-5-3-4--
---------------------

Bass Solo
-----------------------------2-----------------4-5-7-5--------------
-----------5-------------3-4---4-3-------3-4-5---------7-6-5--------
--7-7-5------6-5-0-3-4-5-----------5-4-3---------------------7-6-5--
--------6~----------------------------------------------------------

---------------34-5--9-9-7--------9-9-7---------------12-13-14-------------- and 4
----------34-5-------------9~-8-7-------9~-8-7--12-12-------------14-13-12-- played
--7--5--3------------------------------------------------------------------- quickly

---------------------------
--------------5-3-2--------
--9-7-6-------------3-1-0--
--------7-5-4--------------


Breakdown:
Intro      x1
Verse      x2
Chorus     x4
Verse      x2
Chorus     x4
Bass Solo  x1
Verse      x2
Chorus     x4
            

comments powered by Disqus
↑ Back to top | Unsigned Bass for 1-10. Lyrics for acoustic guitar and electric guitar. Tablatures and chords are parodies/interpretations of the original songs. You may use it for private study, scholarship, research or language learning purposes only