» » »

Unsigned, 10point3 - Parents Today Tabs (ver.1)

Artists:  A B C D E F G H I J K L M N O P Q R S T U V W X Y Z # 

10point3 - Parents Today Tabs (ver.1)

Unsigned Tabs
 Rating:
4/5 (4 votes)
10point3 - Parents Today lessons Tabs too difficult? Try these video lessons and learn fast
                10point3 - parents today

INTRO:

E|-----------------------------------------------|
B|-----------------------------------------------|
G|-----------------------------------------------|
D|----6---------6---------6---------2-4-6-4-2----|
A|--7---7-----7---7-2---7---7---7-2--------------|
E|--------5-------------------5------------------|

PLAY THIS X2 CLEAN, THEN X2 WITH DISTORTION.

VERSE:

(DISTORTION)
E|--------------------------------------------------------------------|
B|--------------------------------------------------------------------|
G|--------------------------------------------------------------------|
D|--66666666----------66666666-44444444-66666666----------44444444----|
A|--77777777-77777777-77777777-22222222-77777777-77777777-22222222----|
E|-----------55555555----------------------------55555555-------------|
P.M.--------------------------------------------------------------|

PLAY THIS X2.

CHORUS(PART 1):

(DISTORTION)
E|-----------------------------------------
B|-----------------------------------------
G|-----------99999999----------77777777----
D|--77777777-99999999-44444444-77777777----
A|--77777777-77777777-44444444-55555555----
E|--55555555----------22222222-------------

PLAY THIS X2

(PART 2)
  ----------------------------------------------------------------|
  ----------------------------------------------------------------|
  -----------99999999----------77777777----------99999999----7----|
  --77777777-99999999-44444444-77777777-77777777-99999999-4--7----|
  --77777777-77777777-44444444-55555555-77777777-77777777-4--5----|
  --55555555----------22222222----------55555555----------2-------|
P.M. -------  -------  -------  --- ---  -------  -------

PLAY THIS X1, LET THE LAST 2 CHORDS RING.

INTRO TUNE X2 (CLEAN)

VERSE X2

CHORUS (SAME AS LAST TIME)

INTERLUDE:

E|-------------------------------------|
B|-------------------------------------|
G|-------------------------------------|
D|----6-------6---7---6-------6---4----|
A|--7---7---7---7---7---7---7---7------|
E|--------5---------------7------------|
P.M.-------------------------------|

PLAY THIS X2(CLEAN), THEN X2(DISTORTION).

CHORUS(PART 1 ONLY)X8

END ON:

(DISTORTION)
E|----------------|
B|----------------|
G|-----7--7-------|
D|--4--7--7--7----|
A|--4--5--5--7----|
E|--2--------5----|

INSTEAD OF NORMAL CHORUS ENDING.

ENJOY THIS, NOW!!!
            
Submit corrections

comments powered by Disqus
↑ Back to top | Unsigned Tabs for 10point3 - Parents Today. Lyrics for acoustic guitar and electric guitar. Tablatures and chords are parodies/interpretations of the original songs. You may use it for private study, scholarship, research or language learning purposes only