» » »

Tuff Ghost Tabs (ver.2)

Artists:  A B C D E F G H I J K L M N O P Q R S T U V W X Y Z # 

Tuff Ghost Tabs (ver.2)

Unicorns
Rating:
4/5 (1 vote)

Hard to play? Try these video lessons and learn fast.
                (Intro)
Band: The Unicorns

happy tabbing!

1-------------------------------|
2-------------------------------|
3-------------------------------|
4-------------------------------|
5--5--3--0-----5--3--2--3--2/5--|
6-----------4-------------------|

(This next part is with the synthesizer behind it)

1----------------------------------------------------------------|
2----------------------------------------------------------------|
3----------------------------------------------------------------|
4----------------------------------------------------------------|
5--7-5-3-2-3-2-0-------------------------------------------------|
6----------------4-5-4-5--0-0-0-1-1-1----------------------------|

1----------------------------------------------------------------|
2----------------------------------------------------------------|
3----------------------------------------------------------------|
4----------------------------------------------------------------|
5--7-5-3-2-3-2-0-------------------------------------------------|
6----------------4-5-4-5--7-7-7-8-8-8----------------------------|
            
Hard to play? Try these video lessons and learn fast. | Correct




comments powered by Disqus
↑ Back to top | Tablatures and chords are parodies/interpretations of the original songs. You may use it for private study, scholarship, research or language learning purposes only