» » »

Unicorns, Tuff Ghost Bass tabs (ver.1)

Artists:  A B C D E F G H I J K L M N O P Q R S T U V W X Y Z # 

Tuff Ghost Bass tabs (ver.1)

Unicorns Tabs
Rating:
5/5 (3 votes)
Hard to play? Try these video lessons and learn fast.
                Tuff Ghost - The Unicorns

The song is in standard tuning, but when they recorded it, in was in 434 instead of 440
some reason, so use a chromatic tuner. Also, some simple parts are missing that you can
out easily.

Intro
G|-9-7---------------|-9-7----------------|  Listen to the song to figure out
D|-----10-9-6~-------|-----10-9-10~-9-/12-|  the correct timing on everything.
A|-------------------|--------------------|
E|----------------00-|--------------------|

G|-9-7----------------------------------|
D|-----10-9-10-9-7-6~-7-6~-7-222-333----|
A|--------------------------------------|
E|--------------------------------------|

G|-9-7----------------------------------|
D|-----10-9-10-9-7-6~-66~-6-777-999-----|
A|--------------------------------------|
E|--------------------------------------|

Bridge
G|-------------------------------------------------------------------------|
D|-7-7-7-7-7-7-7-7-7-7-7-7-7-7-7-7-7-6-6-6-6-6-6-6-6-6-6-6-6-6-6-6-6-------| etc.
A|-------------------------------------------------------------------------|
E|-------------------------------------------------------------------------|

Solo (played extremely fast)
G|-999-777-----------------------------------------------------| *10s and 12s not 0,1,2
D|---------101010-999-101010-999-777-6666-7-6666-7-22222-33333-|
A|-------------------------------------------------------------|
E|-------------------------------------------------------------|

G|-999-777-------------------------------------------------------------|
D|---------101010-999-101010-999-777-77777-99999-1010101010-1212121212-|
A|---------------------------------------------------------------------|
E|---------------------------------------------------------------------|

G|-999-101010-999-777-999-777--------------------------------|
D|----------------------------101010-22222-22222-22222-22222-|
A|-----------------------------------------------------------|
E|-----------------------------------------------------------|

G|-999-101010-999-777-999-777----------------------7777-9999-10101010-11111111-12121212-131313-14----|
D|----------------------------101010-9999-10101010---------------------------------------------------|
A|---------------------------------------------------------------------------------------------------|
E|---------------------------------------------------------------------------------------------------|
(this last part is a bit approximate on the notes played towards the end, so i guess 
play whatever
sounds good)

Ending (listen for exact timing, slide to 0)
G|----|----|----|----|------|
D|-7-|-6-|-7-|-6-|-7~-------|
A|----|----|----|----|------|
E|----|----|----|----|------|
            

comments powered by Disqus
↑ Back to top | Unicorns Bass for Tuff Ghost. Lyrics for acoustic guitar and electric guitar. Tablatures and chords are parodies/interpretations of the original songs. You may use it for private study, scholarship, research or language learning purposes only