» » »

Tuff Ghost Tabs (ver.1)

Artists:  A B C D E F G H I J K L M N O P Q R S T U V W X Y Z # 

Tuff Ghost Tabs (ver.1)

Unicorns
Rating:
5/5 (1 vote)

Hard to play? Try these video lessons and learn fast.
                -----------------------------------------------------------------------------
                             Tuff Ghost - The Unicorns
-----------------------------------------------------------------------------


e|--------------------------------------------------------------------------|
B|--------------------------------------------------------------------------|
G|--------------------------------------------------------------------------|
D|--------------------------------------------------------------------------|
A|--5--3--0-------5--3--2--3--2/5-------------------------------------------|
E|-----------4-0~-----------------------------------------------------------|

e|--------------------------------------------------------------------------|
B|--------------------------------------------------------------------------|
G|--------------------------------------------------------------------------|
D|--------------------------------------------------------------------------|
A|--7-5-3-2-3-2-0-----------------7-5-3-2-3-2-0-----------------------------|
E|----------------4-5-4-5-000-111----------------4-5-4-5-777-888------------|


E/G#: 422100


Am
Tuff ghost, tuff crowd, tuff love
E/G#
Sit down, Sit down, Sit down 
Am
Tuff ghost, tuff crowd, tuff love
E/G#
Sit down, Sit down, Sit down 
Am
Tuff ghost, tuff crowd, tuff love
E/G#
Sit down, Sit down, Sit down 

C
Say something now
G
Say something now

Am
The tuff ghost disappears for 3 days
E/G#
The tuff ghost is set in his ways
Am
I don't want to hurt you
          F                       E
Well you can't, 'cuz i'm already dead

Am
The tuff ghost is invincible
E
No guts came out when he bled
F
Well i lift weights, but i don't sweat.
E
I go for a swim, but i don't get wet
Am                  E
I don't care about anyone else
        F                                  E
I'm a strong dead man, looking out for himself

Am                                D
I think you're suffering, that's why you're so mean
               E/G#
You're already dead

                   Am
I can see right through 
             C
see right through 
             F
see right through
               G
right through you 
                   Am
I can see right through 
             C
see right through 
             F
see right through
              E/G#
right through you 


Solo:

e|--------------------------------------------------------------------------|
B|--------------------------------------------------------------------------|
G|--------------------------------------------------------------------------|
D|--------------------------------------------------------------------------|
A|--777-555-333-------------------------------------------------------------|
E|--------------777-8-7-5-444-5-444-5-000-111-------------------------------|

e|--------------------------------------------------------------------------|
B|--------------------------------------------------------------------------|
G|--------------------------------------------------------------------------|
D|--------------------------------------------------------------------------|
A|--777-555-333-------------------------------------------------------------|
E|--------------777-8-7-5-444-5-444-5-777-888-------------------------------|

e|--------------------------------------------------------------------------|
B|--------------------------------------------------------------------------|
G|--------------------------------------------------------------------------|
D|--------------------------------------------------------------------------|
A|--777-888-777-555-777-555-333---------------------------------------------|
E|------------------------------0-000-0-000-0-000-0-000---------------------|

e|--------------------------------------------------------------------------|
B|--------------------------------------------------------------------------|
G|--------------------------------------------------------------------------|
D|--------------------------------------------------------------------------|
A|--777-888-777-555-777-555-333---------------------------------------------|
E|------------------------------777-888-10-11-12-15-16-17-------------------|

E/G# till end.
            
Hard to play? Try these video lessons and learn fast. | Correct




comments powered by Disqus
↑ Back to top | Tablatures and chords are parodies/interpretations of the original songs. You may use it for private study, scholarship, research or language learning purposes only