array
(
    
'mywillbedoneintro1' => 'mywillbedoneintro1'
    'unearth' 
=> 'unearth'
)
My Will Be Done Tabs (ver. 3) by Unearth @ AZ CHORDS.COM
» » »

My Will Be Done Tabs (ver.3)

Artists:  A B C D E F G H I J K L M N O P Q R S T U V W X Y Z # 

My Will Be Done Tabs (ver.3)

Unearth
Rating:
0/5 (0 votes)

Hard to play? Try these video lessons and learn fast.
                (Intro)
My Will Be Done
Unearth
The March
Copyright 2008 Metal Blade Records

-------------------------------------------------

0132 hrs 11/20/2008
Hey guys, this is a great song from their new album.
I am working on a GuitarPro tab as well, nobody posted any (of any format besides the PowerTab).
So this is just the intro. I will add updates as I progress.

All guitars in the tuning: Seven String Standard (B E A D G B E)

Legend:

Note duration:
W = Whole
H = Half
Q = Quarter
E = Eighth
S = Sixteenth

h = hammer-on
p = pull-off

BPM = 160

The following parts are mostly sweep picking. I'm not gonna label the strokes because 
a pain in the ass.

FIG A

Guitar 1
     S   S  S  S  S  S   S  S  S  S  S  S   S   S   S  S
E||--------------10-14p-10----------10-14h-15p-14p-10----|
B||-----------12-----------12----12-------------------12-|
G||--------11-----------------11-------------------------|
D||--9h-12-----------------------------------------------|
A||------------------------------------------------------|
E||------------------------------------------------------|
B||------------------------------------------------------|


  S   S  S  S  S  S   S  S  S  S  S  S   S   S   S  S
--------------10-14p-10----------10-14h-15p-14p-10----|
-----------12-----------12----12-------------------12-|
--------11-----------------11-------------------------|
--9h-12-----------------------------------------------|
------------------------------------------------------|
------------------------------------------------------|
------------------------------------------------------|


   S S S S S  S  S S S S S  S   S   S  S S
-----------7-10p-7-------7-10h-11p-10p-7---|
---------8---------8---8-----------------8-|
-------7-------------7---------------------|
-----9-------------------------------------|
--10---------------------------------------|
-------------------------------------------|
-------------------------------------------|


   S S S S S  S  S S S S S  S   S   S  S S
-----------7-10p-7-------7-10h-11p-10p-7----||
---------8---------8---8-----------------8--||
-------7-------------7----------------------||
-----9--------------------------------------||  Play FIG A two times.
--10----------------------------------------||
--------------------------------------------||
--------------------------------------------||

FIG B

Guitar 1 (same thing as before)
  S   S  S  S  S  S   S  S  S  S  S  S   S   S   S  S
--------------10-14p-10----------10-14h-15p-14p-10----|
-----------12-----------12----12-------------------12-|
--------11-----------------11-------------------------|
--9h-12-----------------------------------------------|
------------------------------------------------------|
------------------------------------------------------|
------------------------------------------------------|
                                                      |
                                                      |
Guitar 2                                              |
   S  S  S  S  S  S   S  S  S  S  S  S   S   S   S  S |
--------------14-17p-14----------14-17h-19p-17p-14----|
-----------15-----------15----15-------------------15-|
--------14-----------------14-------------------------|
-----16-----------------------------------------------|
--17--------------------------------------------------|
------------------------------------------------------|
------------------------------------------------------|

  S   S  S  S  S  S   S  S  S  S  S  S   S   S   S  S
--------------10-14p-10----------10-14h-15p-14p-10----|
-----------12-----------12----12-------------------12-|
--------11-----------------11-------------------------|
--9h-12-----------------------------------------------|
------------------------------------------------------|
------------------------------------------------------|
------------------------------------------------------|
                                                      |
                                                      |
                                                      |
   S  S  S  S  S  S   S  S  S  S  S  S   S   S   S  S |
--------------14-17p-14----------14-17h-19p-17p-14----|
-----------15-----------15----15-------------------15-|
--------14-----------------14-------------------------|
-----16-----------------------------------------------|
--17--------------------------------------------------|
------------------------------------------------------|
------------------------------------------------------|

  S  S  S  S  S  S   S  S  S  S  S  S   S   S   S  S
--------------7--10p-7-----------7--10h-11p-10p-7-----|
-----------8------------8-----8--------------------8--|
--------7------------------7--------------------------|
-----9------------------------------------------------|
--10--------------------------------------------------|
------------------------------------------------------|
------------------------------------------------------|
                                                      |
                                                      |
                                                      |
  S   S  S  S  S  S   S  S  S  S  S  S   S   S   S  S |
--------------10-14p-10----------10-14h-15p-14p-10----|
-----------12-----------12----12-------------------12-|
--------11-----------------11-------------------------|
--9h-12-----------------------------------------------|
------------------------------------------------------|
------------------------------------------------------|
------------------------------------------------------|


  S  S  S  S  S  S   S  S  S  S  S  S   S   S   S  S
--------------7--10p-7-----------7--10h-11p-10p-7-----|
-----------8------------8-----8--------------------8--|
--------7------------------7--------------------------|
-----9------------------------------------------------|
--10--------------------------------------------------|
------------------------------------------------------|
------------------------------------------------------|
                                                      |
                                                      | Play RIFF B two times.
                                                      |
  S   S  S  S  S  S   S  S  S  S  S  S   S   S   S  S |
--------------10-14p-10----------10-14h-15p-14p-10----|
-----------12-----------12----12-------------------12-|
--------11-----------------11-------------------------|
--9h-12-----------------------------------------------|
------------------------------------------------------|
------------------------------------------------------|
------------------------------------------------------|
            
Hard to play? Try these video lessons and learn fast. | Correct




comments powered by Disqus
↑ Back to top | Tablatures and chords are parodies/interpretations of the original songs. You may use it for private study, scholarship, research or language learning purposes only