» » »

Unearth, My Will Be Done Bass tabs (ver.1)

Artists:  A B C D E F G H I J K L M N O P Q R S T U V W X Y Z # 

My Will Be Done Bass tabs (ver.1)

Unearth Tabs
 Rating:
4/5 (4 votes)
My Will Be Done lessons Tabs too difficult? Try these video lessons and learn fast
1
                

Tuning: standard BEADG

Intro:
G|------------------------------------------------------------|
D|------------------------------------------------------------|
A|------------------------------------------------------------|
E|------------------------------------------------------------|
B|-0-0-000--0--000--0--000-000-111-111--1--111--1--111-111----|

G|------------------------------------------------------------|
D|------------------------------------------------------------|
A|------------------------------------------------------------|
E|------------------------------------------------------------|
B|-0-0-000--0--000--0--000-000-111-111--1--111--1--11-1-11----|

G|------------------------------------------------------------|
D|------------------------------------------------------------|
A|------------------------------------------------------------|
E|------------------------------------------------------------|
B|-0-0-000--0--000--0--000-000-111-111--1--111--1--111-111----|

G|------------------------------------------------------------|
D|------------------------------------------------------------|
A|------------------------------------------------------------|
E|------------------------------------------------------------|
B|-0-0-000--0--000--0--000-000-111-111--1--111--1--1--1--0----|

Bridge:
G|------------------------------------------------------------|
D|------------------------------------------------------------|
A|------------------------------------------------------------|
E|---------------------------------------7--5--4--------------|
B|-------------------6--5--3-0--------------------5--3-5-0----|

G|------------------------------------------------------------|
D|------------------------------------------------------------|
A|------------------------------------------------------------|
E|---8-7----5-7-------------------8-7----5--7--5--4-----------|
B|-------------------6--5--3-0-----------------------5--3-5-0-|

Verse 1:
G|------------------------------------------------------------|
D|------------------------------------------------------------|
A|------------------------------------------------------------|
E|---8-7----5-7-------------------8-7----5--7--5--4-----------|x2
B|00-----00-----00-0-6--5--3-0-00-----00-------------5--3-5-0-|

Bridge:
G|------------------------------------------------------------|
D|------------------------------------------------------------|
A|------------------------------------------------------------|
E|------------------------------------------------------------|
B|-0-00----------------------0-00-----------------------------|

G|------------------------------------------------------------|
D|------------------------------------------------------------|
A|------------------------------------------------------------|
E|------------------------------------------7--5--4-----------|
B|-0-00----------------------0-00--------------------5--3-5-0-|

Verse 2:
G|------------------------------------------------------------|
D|------------------------------------------------------------|
A|------------------------------------------------------------|
E|---8-7----5-7-------------------8-7----5--7--5--4-----------|
B|00-----00-----00-0-6--5--3-0-00-----00-------------5--3-5-0-|

G|------------------------------------------------------------|
D|------------------------------------------------------------|
A|------------------------------------------------------------|
E|---8-7----5-7-------------------8-7----5--7--5--4-----------|
B|00-----00-----00-0-6--5--3-0-00-----00------------5---------|

Chorus:
G|-----------------------------------------------------------------|
D|-----------------------------------------------------------------|
A|-----------------------------------------------------------------|
E|-----------------------------------------------------------------|x4
B|-0-0-0-0-0-0-0-0-0-0-0-0-0-0-0-0-8-8-8-8-8-8-8-8-7-7-7-7-7-7-7-7-|

Bridge:
G|------------------------------------------------------------|
D|------------------------------------------------------------|
A|------------------------------------------------------------|
E|------------------------------------------------------------|
B|-0----------------------------------------------------------|

G|------------------------------------------------------------|
D|------------------------------------------------------------|
A|------------------------------------------------------------|
E|------------------------------------------------------------|
B|-0------------------------------000-000--0--000--0--111-111-|

G|------------------------------------------------------------|
D|------------------------------------------------------------|
A|------------------------------------------------------------|
E|------------------------------------------------------------|x4
B|000000000-0--0000--0--000-000--000000000-0--0--000--0-0-000-|

Solo:
G|------------------------------------------------------------|
D|------------------------------------------------------------|
A|------------------------------------------------------------|
E|------------------------------------------------------------|
B|-0-00--------------------------0-00-------------------------|

G|------------------------------------------------------------|
D|------------------------------------------------------------|
A|------------------------------------------------------------|
E|---------------------------------------------7--5--4--------|
B|-0-00--------------------------0-00-------------------5-3-5-|

G|------------------------------------------------------------|
D|------------------------------------------------------------|
A|------------------------------------------------------------|
E|------------------------------------------------------------|
B|-0-00--------------------------0-00-------------------------|

G|------------------------------------------------------------|
D|------------------------------------------------------------|
A|------------------------------------------------------------|
E|---------------------------------------------7--5--4--------|
B|-0-00--------------------------0-00-------------------5-3-5-|

Verse 3:
G|------------------------------------------------------------|
D|------------------------------------------------------------|
A|------------------------------------------------------------|
E|-----8-7----5-7-------------------8-7----5--7--5--4---------|x2
B|0-00-----00-----00-0-6--5--3-0-00-----00-------------5--3-5-|

Bridge:
G|------------------------------------------------------------|
D|------------------------------------------------------------|
A|------------------------------------------------------------|
E|-----------3----2----5-5-5-5-5-5-5-5-5-5-5-5-5-5-5-5--------|
B|-0----3-----------------------------------------------------|

Chorus:
G|------------------------------------------------------------|
D|------------------------------------------------------------|
A|------------------------------------------------------------|
E|----------------3----33332----------------------------------|
B|-0----00000--------------------8\---------------------------|

G|-----------------------------------------------------------------|
D|-----------------------------------------------------------------|
A|-----------------------------------------------------------------|
E|-----------------------------------------------------------------|x3
B|-0-0-0-0-0-0-0-0-0-0-0-0-0-0-0-0-8-8-8-8-8-8-8-8-7-7-7-7-7-7-7-7-|

Outro:
G|------------------------------------------------------------|
D|------------------------------------------------------------|
A|------------------------------------------------------------|
E|------------------------------------------------------------|
B|-0-0-000--0--000--0--000-000-111-111--1--111--1--111-111----|

G|------------------------------------------------------------|
D|------------------------------------------------------------|
A|------------------------------------------------------------|
E|------------------------------------------------------------|
B|-0-0-000--0--000--0--000-000-111-111--1--111--1--11-1-11----|

G|------------------------------------------------------------|
D|------------------------------------------------------------|
A|------------------------------------------------------------|
E|------------------------------------------------------------|
B|-0-0-000--0--000--0--000-000-111-111--1--111--1--111-111----|

G|------------------------------------------------------------|
D|------------------------------------------------------------|
A|------------------------------------------------------------|
E|------------------------------------------------------------|
B|-0-0-000--0--000--0--000-000-111-111--1--111--1--111-111----|

Notes: 

If You have problems with this tab, write Me a mail what's wrong with it
instead of giving it a bad rating! It'd be better for everyone! Thx!


| /  slide up
| \  slide down
| h  hammer-on
| p  pull-off
| ~  vibrato
| +  harmonic
| x  Mute note
            
Submit corrections

comments powered by Disqus
↑ Back to top | Unearth Bass for My Will Be Done. Lyrics for acoustic guitar and electric guitar. 1 Tablatures and chords are parodies/interpretations of the original songs. You may use it for private study, scholarship, research or language learning purposes only