>
 >
My Will Be Done

My Will Be Done Guitar Tabs

Unearth - My Will Be Done chords, tabs, tablatures, lyrics

Guitar lessons | Add/correct | Request | Top 50 tabs Artists:  A B C D E F G H I J K L M N O P Q R S T U V W X Y Z 0-9

My Will Be Done Guitar Tabs – Unearth

CD, Sheet music, Poster

Do you like My Will Be Done? Share with your friends now
Bass TabsBass Tabs v2Tabs
#------------------------------------------------------------------------------##


Gtr I (B E A D G B E) - 'Untitled'
Gtr II (B E A D G B E) - 'Untitled'
Gtr III (B E A D G B E) - 'Untitled'

 Intro
  Q=161
 4/4
  Gtr I
                                                       T
  H    E E Q       S  S  S  S  S  S  S  S  S  S  S  S  S  S  S  S
|--------------||-------------10-14p10----------10-14-15p14p10----|
|--------------||----------12----------12----12----------------12-|
|--------------||o------11----------------11----------------------|
|--------------||--9-12-------------------------------------------|
|--------------||o------------------------------------------------|
|--------2s7\--||-------------------------------------------------|
|--------0s5\--||-------------------------------------------------|
|
| Gtr II
|                  PM----------------------------------------------
| W                S  S  E     S  S  q           q           S  S
|--------------||-------------------------------------------------|
|--------------||-------------------------------------------------|
|--------------||o------------------------------------------------|
|--------------||-------------------------------------------------|
|--------------||o------------------------------------------------|
|--------------||--2--2--2-----2--2--2-----------2-----------2--2-|
|--------------||--0--0--0-----0--0--0-----------0-----------0--0-|


                                      T
  S  S  S  S  S  S  S  S  S  S  S  S  S  S  S  S
|------------10-14p10----------10-14-15p14p10----|
|---------12----------12----12----------------12-|
|------11----------------11----------------------|
|-9-12-------------------------------------------|
|------------------------------------------------|
|------------------------------------------------|
|------------------------------------------------|
|
|------------------------------------------|
| q           q           S  S  E     S  S  E
|------------------------------------------------|
|------------------------------------------------|
|------------------------------------------------|
|------------------------------------------------|
|------------------------------------------------|
|-2-----------2-----------2--2--2-----2--2--2----|
|-0-----------0-----------0--0--0-----0--0--0----|


                              T
   S S S S S  S S S S S S  S  S  S S S
|----------7-10p7-------7-10-11p10p7---|
|--------8--------8---8--------------8-|
|------7------------7------------------|
|----9---------------------------------|
|-10-----------------------------------|
|--------------------------------------|
|--------------------------------------|
|
|  PM-----------------------------------
|  S S E   S  S q       q          S S
|--------------------------------------|
|--------------------------------------|
|--------------------------------------|
|--------------------------------------|
|--------------------------------------|
|--3-3-3---3--3-3-------3----------3-3-|
|--1-1-1---1--1-1-------1----------1-1-|


                              T
   S S S S S  S S S S S S  S  S  S S S
|----------7-10p7-------7-10-11p10p7----||
|--------8--------8---8--------------8--||
|------7------------7------------------o||
|----9----------------------------------||
|-10-----------------------------------o||
|---------------------------------------||
|---------------------------------------||
|
|----------------------------------|
|  q       q        S S E     S  S E
|---------------------------------------||
|---------------------------------------||
|--------------------------------------o||
|---------------------------------------||
|--------------------------------------o||
|--3-------3--------3-3-3-----3--3-3----||
|--1-------1--------1-1-1-----1--1-1----||


    Gtr I
                                         T
     S  S  S  S  S  S  S  S  S  S  S  S  S  S  S  S
||--------------10-14p10----------10-14-15p14p10----|
||-----------12----------12----12----------------12-|
||o-------11----------------11----------------------|
||---9-12-------------------------------------------|
||o-------------------------------------------------|
||--------------------------------------------------|
||--------------------------------------------------|
|
|   Gtr II
|    S  S  S  S  S  S  S  S  S  S  S  S  S  S  S  S
||--------------14-17-14----------14-17-19-17-14----|
||-----------15----------15----15----------------15-|
||o-------14----------------14----------------------|
||-----16-------------------------------------------|
||o-17----------------------------------------------|
||--------------------------------------------------|
||--------------------------------------------------|
|
|   Gtr III
|    PM----------------------------------------------
|    S  S  E     S  S  q           q           S  S
||--------------------------------------------------|
||--------------------------------------------------|
||o-------------------------------------------------|
||--------------------------------------------------|
||o-------------------------------------------------|
||---2--2--2-----2--2--2-----------2-----------2--2-|
||---0--0--0-----0--0--0-----------0-----------0--0-|


                                       T
   S  S  S  S  S  S  S  S  S  S  S  S  S  S  S  S
|-------------10-14p10----------10-14-15p14p10-----|
|----------12----------12----12----------------12--|
|-------11----------------11-----------------------|
|--9-12--------------------------------------------|
|--------------------------------------------------|
|--------------------------------------------------|
|--------------------------------------------------|
|
|  S  S  S  S  S  S  S  S  S  S  S  S  S  S  S  S
|-------------14-17-14----------14-17-19-17-14-----|
|----------15----------15----15----------------15--|
|-------14----------------14-----------------------|
|----16--------------------------------------------|
|-17-----------------------------------------------|
|--------------------------------------------------|
|--------------------------------------------------|
|
|-------------------------------------------|
|  q           q           S  S  E     S  S  E
|--------------------------------------------------|
|--------------------------------------------------|
|--------------------------------------------------|
|--------------------------------------------------|
|--------------------------------------------------|
|--2-----------2-----------2--2--2-----2--2--2-----|
|--0-----------0-----------0--0--0-----0--0--0-----|


                                       T
   S  S  S  S  S  S  S  S  S  S  S  S  S  S  S  S
|--------------7-10p=7-----------7-10-11p10p=7------|
|-----------8-----------8-----8-----------------8---|
|--------7-----------------7------------------------|
|-----9---------------------------------------------|
|-10------------------------------------------------|
|---------------------------------------------------|
|---------------------------------------------------|
|
|                                      T
|  S  S  S  S  S  S  S  S  S  S  S  S  S  S  S  S
|-------------10-14p10----------10-14-15p14p10------|
|----------12----------12----12----------------12---|
|-------11----------------11------------------------|
|--9-12---------------------------------------------|
|---------------------------------------------------|
|---------------------------------------------------|
|---------------------------------------------------|
|
|  PM------------------------------------------------
|  S  S  E     S  S  q           q           S    S
|---------------------------------------------------|
|---------------------------------------------------|
|---------------------------------------------------|
|---------------------------------------------------|
|---------------------------------------------------|
|--3--3--3-----3--3--3-----------3-----------3----3-|
|--1--1--1-----1--1--1-----------1-----------1----1-|


                                       T
   S  S  S  S  S  S  S  S  S  S  S  S  S  S  S  S
|--------------7-10p=7-----------7-10-11p10p=7------||
|-----------8-----------8-----8-----------------8---||
|--------7-----------------7-----------------------o||
|-----9---------------------------------------------||
|-10-----------------------------------------------o||
|---------------------------------------------------||
|---------------------------------------------------||
|
|                                      T
|  S  S  S  S  S  S  S  S  S  S  S  S  S  S  S  S
|-------------10-14p10----------10-14-15p14p10------||
|----------12----------12----12----------------12---||
|-------11----------------11-----------------------o||
|--9-12---------------------------------------------||
|--------------------------------------------------o||
|---------------------------------------------------||
|---------------------------------------------------||
|
|-------------------------------------------|
|  q           q           S  S  E     S  S  E
|---------------------------------------------------||
|---------------------------------------------------||
|--------------------------------------------------o||
|---------------------------------------------------||
|--------------------------------------------------o||
|--3-----------3-----------3--3--3-----3--3--3------||
|--1-----------1-----------1--1--1-----1--1--1------||


 Verse
  Faster Q=168
    PM--|      PM--|       PM  PM
  E S S E  E E S S E E   E S S E E E. E. E
|----------------------|-------------------|
|----------------------|-------------------|
|----------------------|-------------------|
|----------------------|-------------------|
|---------10s9-------7s|=9-----------------|
|-2--------8s7-------5s|=7-------5-8--7--5-|
|-0-0-0-0------0-0-0---|---0-0-0-3-6--5--3-|
|
| W                      Q     E E E. E. E
|----------------------|-------------------|
|----------------------|-------------------|
|----------------------|-------------------|
|----------------------|-------------------|
|----------------------|-------------------|
|----------------------|-----------8--7--5-|
|----------------------|-----------6--5--3-|


    PM--|      PM--|
  E S S E  E E S S E E   E. E. E E. E. E
|----------------------|-------------------|
|----------------------|-------------------|
|----------------------|-------------------|
|----------------------|-------------------|
|---------10s9-------7-|-9--7--6-----------|
|-2--------8s7-------5-|-7--5--4-8--5--7---|
|-0-0-0-0------0-0-0---|---------6--3--5---|
|
| W                      E. E. E E. E. E
|----------------------|-------------------|
|----------------------|-------------------|
|----------------------|-------------------|
|----------------------|-------------------|
|----------------------|-9--7--6-----------|
|----------------------|-7--5--4-8--5--7---|
|----------------------|---------6--3--5---|


    PM--|      PM--|       PM  PM
  E S S E  E E S S E E   E S S E E E. E. E
|----------------------|-------------------|
|----------------------|-------------------|
|----------------------|-------------------|
|----------------------|-------------------|
|---------10s9-------7s|=9-----------------|
|-2--------8s7-------5s|=7-------5-8--7--5-|
|-0-0-0-0------0-0-0---|---0-0-0-3-6--5--3-|
|
| E Q      E E Q     E   E Q     E E. E. E
|----------------------|-------------------|
|----------------------|-------------------|
|----------------------|-------------------|
|----------------------|-------------------|
|---------10s9-------7s|=9-----------------|
|-2--------8s7-------5s|=7---------8--7--5-|
|-0--------------------|-----------6--5--3-|


    PM--|      PM--|
  E S S E  E E S S E E   E. E. E E. E. E
|----------------------|-------------------|
|----------------------|-------------------|
|----------------------|-------------------|
|----------------------|-------------------|
|---------10s9-------7-|-9--7--6-----------|
|-2--------8s7-------5-|-7--5--4-8--5--7---|
|-0-0-0-0------0-0-0---|---------6--3--5---|
|
| E Q      E E Q     E   E. E. E E. E. E
|----------------------|-------------------|
|----------------------|-------------------|
|----------------------|-------------------|
|----------------------|-------------------|
|---------10s9-------7-|-9--7--6-----------|
|-2--------8s7-------5-|-7--5--4-8--5--7---|
|-0--------------------|---------6--3--5---|


    Gtrs I, II
      PM--|      PM--|       PM  PM
    E S S E  E E S S E E   E S S E E E. E. E
||-----------------------|-------------------|
||-----------------------|-------------------|
||o----------------------|-------------------|
||-----------------------|-------------------|
||o---------10s9-------7s|=9-----------------|
||--2--------8s7-------5s|=7-------5-8--7--5-|
||--0-0-0-0------0-0-0---|---0-0-0-3-6--5--3-|


    PM--|      PM--|
  E S S E  E E S S E E   E. E. E E. E. E
|----------------------|-------------------||
|----------------------|-------------------||
|----------------------|------------------o||
|----------------------|-------------------||
|---------10s9-------7-|-9--7--6----------o||
|-2--------8s7-------5-|-7--5--4-8--5--7---||
|-0-0-0-0------0-0-0---|---------6--3--5---||


  Gtr I
  PM-|
  E. E. H    E   E. E. Q  E E E    E. E. H    E
|--------------|-----------------|--------------|
|--------------|-----------------|--------------|
|--------------|-----------------|--------------|
|--------------|-----------------|--------------|
|--------------|-----------------|--------------|
|-2--2---------|-7--8--7--5-4-2--|-2--2---------|
|-0--0---------|-5--6--5--3-2-0--|-0--0---------|
|
| Gtr II
| E. E. H    E   W                 E. E. H    E
|--------------|-----------------|--------------|
|--------------|-----------------|--------------|
|--------------|-----------------|--------------|
|--------------|-----------------|--------------|
|--------------|-----------------|--------------|
|-2--2---------|-----------------|-2--2---------|
|-0--0---------|-----------------|-0--0---------|


  E. E. Q  E E E    E. E. H    E   E. E. Q  E E E    E. H.      +S
|-----------------|--------------|-----------------|-----------------|
|-----------------|--------------|-----------------|-----------------|
|-----------------|--------------|-----------------|-----------------|
|-----------------|--------------|-----------------|-----------------|
|-9--7--6---------|--------------|-----------------|-----------------|
|-7--5--4--8-5-7--|-2--2---------|-7--8--7--5-4-2--|-2--2-------(2)--|
|----------6-3-5--|-0--0---------|-5--6--5--3-2-0--|-0--0-------(0)--|
|
| W                 E. E. H    E   W                 E. H.      +S
|-----------------|--------------|-----------------|-----------------|
|-----------------|--------------|-----------------|-----------------|
|-----------------|--------------|-----------------|-----------------|
|-----------------|--------------|-----------------|-----------------|
|-----------------|--------------|-----------------|-----------------|
|-----------------|-2--2---------|-----------------|-2--2-------(2)--|
|-----------------|-0--0---------|-----------------|-0--0-------(0)--|


  Gtrs I, II
  E. E. Q  E E E
|-------------------|
|-------------------|
|-------------------|
|-------------------|
|-9--7--6-----------|
|-7--5--4--8-5-7----|
|----------6-3-5----|


      PM--|      PM--|       PM  PM
    E S S E  E E S S E E   E S S E E E. E. E
||-----------------------|-------------------|
||-----------------------|-------------------|
||o----------------------|-------------------|
||-----------------------|-------------------|
||o---------10s9-------7s|=9-----------------|
||--2--------8s7-------5s|=7-------5-8--7--5-|
||--0-0-0-0------0-0-0---|---0-0-0-3-6--5--3-|


                        1.
    PM--|      PM--|
  E S S E  E E S S E E   E. E. E E. E. E
|----------------------|-------------------||
|----------------------|-------------------||
|----------------------|------------------o||
|----------------------|-------------------||
|---------10s9-------7-|-9--7--6----------o||
|-2--------8s7-------5-|-7--5--4-8--5--7---||
|-0-0-0-0------0-0-0---|---------6--3--5---||


  2.
  E. E. E E. S S S S S
|-------------------------|
|-------------------------|
|-------------------------|
|-------------------------|
|-9--7--6-----------------|
|-7--5--4-7---------------|
|---------5---------------|


   Chorus
    Q=172
    Gtr I
    E  q   E     +E   E E  E    E   q   E     +E  E E E
||---------------------------|--------------------------|
||---------------------------|--------------------------|
||o---11---9b10r=(9)---------|-----11---9b10r=(9)-7-----|
||-------------------12-9----|----------------------9-7-|
||o-----------------------12-|--9-----------------------|
||---------------------------|--------------------------|
||---------------------------|--------------------------|
|
|   Gtr III
|   E  q   E     +E   E E  E    E   q   E     +E  E E E
||---------------------------|--------------------------|
||---------------------------|--------------------------|
||o--------------------------|--------------------------|
||----12--11b12r(11)--9------|-----12--11b12r(11)-9-----|
||o---------------------9--9-|----------------------9-9-|
||---------------------------|-10-----------------------|
||---------------------------|--------------------------|
|
|   Gtr II
|   W                          +W
||---------------------------|--------------------------|
||---------------------------|--------------------------|
||o--------------------------|--------------------------|
||---------------------------|--------------------------|
||o--------------------------|--------------------------|
||--2------------------------|-(2)----------------------|
||--0------------------------|-(0)----------------------|


   E  q   E     +E   E  E  E    E  q   E     +E   E  E  E
|----------------------------|-----------------------------|
|----------------------------|-----------------------------|
|----12--11b12r(11)----------|----14--12b13r(12)-11--------|
|-------------------14-12----|----------------------14-12--|
|-10----------------------14-|-12--------------------------|
|----------------------------|-----------------------------|
|----------------------------|-----------------------------|
|
|  E  q   E     +E   E  E  E    E  q   E     +E   E  E  E
|----------------------------|-----------------------------|
|----------------------------|-----------------------------|
|----------------------------|----11-----------------------|
|----14--12b13r(12)-11-------|--------14b15r(14)-12-11-----|
|----------------------14----|--9----------------------14--|
|-12----------------------15-|-----------------------------|
|----------------------------|-----------------------------|
|
|  W                            W
|----------------------------|-----------------------------|
|----------------------------|-----------------------------|
|----------------------------|-----------------------------|
|----------------------------|-----------------------------|
|--5-------------------------|--4--------------------------|
|--3-------------------------|--2--------------------------|
|----------------------------|-----------------------------|


   E  q   E     +E  E E E    E   q   E     +E  E E E
|-------------------------|--------------------------|
|-------------------------|--------------------------|
|----11---9b10r=(9)-7-----|-----11---9b10r=(9)-7-----|
|---------------------9-7-|----------------------9-7-|
|--9----------------------|--9-----------------------|
|-------------------------|--------------------------|
|-------------------------|--------------------------|
|
|  E  q   E     +E  E E E    E   q   E     +E  E E E
|-------------------------|--------------------------|
|-------------------------|--------------------------|
|-------------------------|--------------------------|
|----12--11b12r(11)-9-----|-----12--11b12r(11)-9-----|
|---------------------9-9-|----------------------9-9-|
|-10----------------------|-10-----------------------|
|-------------------------|--------------------------|
|
|  W                        +W
|-------------------------|--------------------------|
|-------------------------|--------------------------|
|-------------------------|--------------------------|
|-------------------------|--------------------------|
|-------------------------|--------------------------|
|--2----------------------|-(2)----------------------|
|--0----------------------|-(0)----------------------|


                      1.
                                      |--3--|
   E  q   Q  E  E  E    +E   E  E  E  E  E  E  E  E
|--------------------|-------------------------------||
|--------------------|-------------------------------||
|------------------9-|--(9)-----9-11-12-14-12-11--9-o||
|-12-12--11--9-12----|------12-----------------------||
|--------------------|------------------------------o||
|--------------------|-------------------------------||
|--------------------|-------------------------------||
|
|                                     |--3--|
|  E  q   Q  E  E  E    +E   E  E  E  E  E  E  E  E
|--------------------|-------------------------------||
|--------------------|-------------------------------||
|-11-11---9--7-11----|----------------9-11--9-------o||
|-----------------11-|-(11)--9-11-12----------12-11--||
|--------------------|------------------------------o||
|--------------------|-------------------------------||
|--------------------|-------------------------------||
|
|  W                     W
|--------------------|-------------------------------||
|--------------------|-------------------------------||
|--------------------|------------------------------o||
|--------------------|-------------------------------||
|--5-----------------|---4--------------------------o||
|--3-----------------|---2---------------------------||
|--------------------|-------------------------------||


  2.
   E  E  E  E  E  E  E  E
|----------------------------|
|----------------------------|
|--9-----9-11--9-11--9-------|
|----12----------------12----|
|----------------------------|
|----------------------------|
|----------------------------|
|
|  E  E  E  E  E  E  E  E
|----------------------------|
|----------------------------|
|----------------------------|
|-11--9-11-12-11-12-11--9----|
|----------------------------|
|----------------------------|
|----------------------------|
|
|  W
|----------------------------|
|----------------------------|
|----------------------------|
|----------------------------|
|--4-------------------------|
|--2-------------------------|
|----------------------------|


 Interlude
  Q=161
  Gtr I
  W          +W           +W           +W
|----------|------------|------------|--------|
|----------|------------|------------|--------|
|----------|------------|------------|--------|
|-9--------|-(9)--------|-(9)--------|-(9)----|
|----------|------------|------------|--------|
|----------|------------|------------|--------|
|----------|------------|------------|--------|
|
| Gtr III
| W          +W           +W           +W
|----------|------------|------------|--------|
|----------|------------|------------|--------|
|----------|------------|------------|--------|
|----------|------------|------------|--------|
|----------|------------|------------|--------|
|-7--------|-(7)--------|-(7)--------|-(7)----|
|----------|------------|------------|--------|
|
| Gtr II
| W          +W           +W           +W
|----------|------------|------------|--------|
|----------|------------|------------|--------|
|----------|------------|------------|--------|
|----------|------------|------------|--------|
|----------|------------|------------|--------|
|-2--------|-(2)--------|-(2)--------|-(2)----|
|-0--------|-(0)--------|-(0)--------|-(0)----|


  Gtr I
   PM-------------------------------------|
   E  E S S q  q  S S    q   q  S S E S S E
|---------------------|---------------------|
|---------------------|---------------------|
|---------------------|---------------------|
|---------------------|---------------------|
|---------------------|---------------------|
|--2--2-2-2-2--2--2-2-|--2---2--2-2-2-2-2-2-|
|--0--0-0-0-0--0--0-0-|--0---0--0-0-0-0-0-0-|
|
| Gtr II
| +W                    +W
|---------------------|---------------------|
|---------------------|---------------------|
|---------------------|---------------------|
|---------------------|---------------------|
|---------------------|---------------------|
|-(2)-----------------|-(2)-----------------|
|-(0)-----------------|-(0)-----------------|


  Gtrs I, II
  PM------------------------------------|
  S S E S S q  q  S S   q  q  S S E S S E
|---------------------|-------------------|
|---------------------|-------------------|
|---------------------|-------------------|
|---------------------|-------------------|
|---------------------|-------------------|
|-2-2-2-2-2-2--2--2-2-|-2--2--2-2-2-2-2-2-|
|-0-0-0-0-0-0--0--0-0-|-0--0--0-0-0-0-0-0-|


  Gtr I
   <
   W
|--------|
|-[3]----|
|--------|
|--------|
|--------|
|--------|
|--------|
|
| Gtr II
|  <
|  W
|--------|
|-----|
|--------|
|--------|
|--------|
|--------|
|--------|


   Breakdown
    Gtrs I, II
    S S S S S S S S S S E E S S   S S E E E S S E S S E
||------------------------------|-----------------------|
||------------------------------|-----------------------|
||o-----------------------------|-----------------------|
||------------------------------|-----------------------|
||o-----------------------------|-----------------------|
||--2-2-2-2-2-2-2-2-2---2---2-2-|-2-2---2---2-2-2-2-2-2-|
||--0-0-0-0-0-0-0-0-0---0---0-0-|-0-0---0---0-0-0-0-0-0-|


  S S S S S S S S S S E E E   E S S E E E E S S E
|---------------------------|----------------------||
|---------------------------|----------------------||
|---------------------------|---------------------o||
|---------------------------|----------------------||
|---------------------------|---------------------o||
|-2-2-2-2-2-2-2-2-2---2---2-|---2-2-2---2-2-2-2-2--||
|-0-0-0-0-0-0-0-0-0---0---0-|---0-0-0---0-0-0-0-0--||


  Gtr I
  H.                      Q        H         H
|-------------------------------|------------------------|
|-------------------------------|------------------------|
|-------------------------------|------------------------|
|-9----------------------11-----|-12---------9-----------|
|-------------------------------|------------------------|
|-7-----------------------9-----|-10---------7-----------|
|-------------------------------|------------------------|
|
| Gtr II
| S  S S S S S S S S S E  E S S    S S E E E S S E S S E
|-------------------------------|------------------------|
|-------------------------------|------------------------|
|-------------------------------|------------------------|
|-------------------------------|------------------------|
|-------------------------------|------------------------|
|-2--2-2-2-2-2-2-2-2---2----2-2-|--2-2---2---2-2-2-2-2-2-|
|-0--0-0-0-0-0-0-0-0---0----0-0-|--0-0---0---0-0-0-0-0-0-|


   H.                      Q      Q      Q    Q   Q
|------------------------------|---------------------------|
|------------------------------|---------------------------|
|------------------------------|---------------------------|
|-14----------------------12---|-12-----11---11---9--------|
|------------------------------|---------------------------|
|-12----------------------10---|-10------9----9---7--------|
|------------------------------|---------------------------|
|
|  S  S S S S S S S S S E  E E    E S S  E E  E E S S E
|------------------------------|---------------------------|
|------------------------------|---------------------------|
|------------------------------|---------------------------|
|------------------------------|---------------------------|
|------------------------------|---------------------------|
|--2--2-2-2-2-2-2-2-2---2----2-|----2-2--2----2-2-2-2-2----|
|--0--0-0-0-0-0-0-0-0---0----0-|----0-0--0----0-0-0-0-0----|


 Pre-solo
  H.                      Q        H         H
|-------------------------------|------------------------|
|-------------------------------|------------------------|
|-------------------------------|------------------------|
|-9----------------------11-----|-12---------7-----------|
|-------------------------------|------------------------|
|-7-----------------------9-----|-10---------5-----------|
|-------------------------------|------------------------|
|
| S  S S S S S S S S S E  E S S    S S E E E S S E S S E
|-------------------------------|------------------------|
|-------------------------------|------------------------|
|-------------------------------|------------------------|
|-------------------------------|------------------------|
|-------------------------------|------------------------|
|-2--2-2-2-2-2-2-2-2---2----2-2-|--2-2---2---2-2-2-2-2-2-|
|-0--0-0-0-0-0-0-0-0---0----0-0-|--0-0---0---0-0-0-0-0-0-|


  W                           W
|---------------------------|---------------------|
|---------------------------|---------------------|
|---------------------------|---------------------|
|-5-------------------------|-4-------------------|
|-5-------------------------|-4-------------------|
|-3-------------------------|-2-------------------|
|---------------------------|---------------------|
|
| S S S S S S S S S S E E E   E S S E E E E S S E
|---------------------------|---------------------|
|---------------------------|---------------------|
|---------------------------|---------------------|
|---------------------------|---------------------|
|---------------------------|---------------------|
|-2-2-2-2-2-2-2-2-2---2---2-|---2-2-2---2-2-2-2-2-|
|-0-0-0-0-0-0-0-0-0---0---0-|---0-0-0---0-0-0-0-0-|


 Solo I
  Q=168
                       |---3---|
  W                    q  q    q   e.   e.   e    +W
|--------------------|--------------------------|-----------------|
|--------------------|--------------------------|-----------------|
|-9b10.5=============|=9--9----9---9----9----9r-|-(9)-------------|
|--------------------|--------------------------|-----------------|
|--------------------|--------------------------|-----------------|
|--------------------|--------------------------|-----------------|
|--------------------|--------------------------|-----------------|
|
| PM------|
| E.      E. H    E    E.   E.   Q    E    E E     E. E. H    E
|--------------------|--------------------------|-----------------|
|--------------------|--------------------------|-----------------|
|--------------------|--------------------------|-----------------|
|--------------------|--------------------------|-----------------|
|--------------------|--------------------------|-----------------|
|-2-------2----------|-7----8----7----5----4-2--|--2--2-----------|
|-0-------0----------|-5----6----5----3----2-0--|--0--0-----------|


  +W                  S  S S  S  S S  S S S  S S S  S S  S  S
|------------------|------------------------------------------|
|------------------|-------------------------------13-8-10-15-|
|-(9)--------------|-----------------12-7-9-14-7-9------------|
|------------------|-12--7-9-14--7-9--------------------------|
|------------------|------------------------------------------|
|------------------|------------------------------------------|
|------------------|------------------------------------------|
|
|  E. E. Q  E E E     E.      E.      H                  E
|------------------|------------------------------------------|
|------------------|------------------------------------------|
|------------------|------------------------------------------|
|------------------|------------------------------------------|
|--9--7--6---------|------------------------------------------|
|--7--5--4--8-5-7--|--2-------2-------------------------------|
|-----------6-3-5--|--0-------0-------------------------------|


  S   S  S S   S  S S  S  S S  S  S S  S  E    S  S S S   S S S S  S S S S  S S S  S
|-------12-7--10-14-7-10-15-7-10-17-7-10-17S|=19--0-0-0--19-0-0-0-19-0-0-0-19-0-0--0---|
|-8--10-------------------------------------|------------------------------------------|
|-------------------------------------------|------------------------------------------|
|-------------------------------------------|------------------------------------------|
|-------------------------------------------|------------------------------------------|
|-------------------------------------------|------------------------------------------|
|-------------------------------------------|------------------------------------------|
|
| E.       E.       Q          E    E     E    E.     H.                          +S
|-------------------------------------------|------------------------------------------|
|-------------------------------------------|------------------------------------------|
|-------------------------------------------|------------------------------------------|
|-------------------------------------------|------------------------------------------|
|-------------------------------------------|------------------------------------------|
|-7--------8--------7----------5----4-----2-|--2------2---------------------------(2)--|
|-5--------6--------5----------3----2-----0-|--0------0---------------------------(0)--|


   S   S  S  S   S  S  S  S  S  S  S  S  S  S  S  S
|-19--19-15-17--19-19-15-17-19-19-15-17-19-19-15-17-----|
|------------------------------------------------21b22==|
|-------------------------------------------------------|
|-------------------------------------------------------|
|-------------------------------------------------------|
|-------------------------------------------------------|
|-------------------------------------------------------|
|
|  E.        E.        Q           E     E     E
|-------------------------------------------------------|
|-------------------------------------------------------|
|-------------------------------------------------------|
|-------------------------------------------------------|
|--9---------7---------6--------------------------------|
|--7---------5---------4-----------8-----5-----7--------|
|----------------------------------6-----3-----5--------|


 Solo II
   +S   +S   H..
|-(17)-(17)\---------------|----------------|----------------|
|-(21)-(21)\---------------|----------------|----------------|
|--------------------------|----------------|----------------|
|--------------------------|----------------|----------------|
|--------------------------|----------------|----------------|
|--------------------------|----------------|----------------|
|--------------------------|----------------|----------------|
|
|            PM--|
|            E.  E. H    E   E. E. Q  E E E   E. E. H    E
|--------------------------|----------------|----------------|
|--------------------------|----------------|----------------|
|--------------------------|----------------|----------------|
|--------------------------|----------------|----------------|
|--------------------------|----------------|----------------|
|------------2---2---------|-7--8--7--5-4-2-|-2--2-----------|
|------------0---0---------|-5--6--5--3-2-0-|-0--0-----------|


|----------------|--------------|----------------|-------------------|
|----------------|--------------|----------------|-------------------|
|----------------|--------------|----------------|-------------------|
|----------------|--------------|----------------|-------------------|
|----------------|--------------|----------------|-------------------|
|----------------|--------------|----------------|-------------------|
|----------------|--------------|----------------|-------------------|
|
| E. E. Q  E E E   E. E. H    E   E. E. Q  E E E   E. H.      +S
|----------------|--------------|----------------|-------------------|
|----------------|--------------|----------------|-------------------|
|----------------|--------------|----------------|-------------------|
|----------------|--------------|----------------|-------------------|
|-9--7--6--------|--------------|----------------|-------------------|
|-7--5--4--8-5-7-|-2--2---------|-7--8--7--5-4-2-|-2--2-------(2)----|
|----------6-3-5-|-0--0---------|-5--6--5--3-2-0-|-0--0-------(0)----|


|-------------------|
|-------------------|
|-------------------|
|-------------------|
|-------------------|
|-------------------|
|-------------------|
|
| E. E. Q  E E E
|-------------------|
|-------------------|
|-------------------|
|-------------------|
|-9--7--6-----------|
|-7--5--4--8-5-7----|
|----------6-3-5----|


    Gtrs I, II
      PM--|      PM--|       PM  PM
    E S S E  E E S S E E   E S S E E E. E. E
||-----------------------|-------------------|
||-----------------------|-------------------|
||o----------------------|-------------------|
||-----------------------|-------------------|
||o---------10s9-------7s|=9-----------------|
||--2--------8s7-------5s|=7-------5-8--7--5-|
||--0-0-0-0------0-0-0---|---0-0-0-3-6--5--3-|


    PM--|      PM--|
  E S S E  E E S S E E   E. E. E E. E. E
|----------------------|-------------------||
|----------------------|-------------------||
|----------------------|------------------o||
|----------------------|-------------------||
|---------10s9-------7-|-9--7--6----------o||
|-2--------8s7-------5-|-7--5--4-8--5--7---||
|-0-0-0-0------0-0-0---|---------6--3--5---||


  Gtrs I, II
                            PM----------|
  H    H      H    H      E E E E E E E E   E E E E E E E E
|-----------|-----------|-----------------|-----------------|
|-----------|-----------|-----------------|-----------------|
|-----------|-----------|-----------------|-----------------|
|-----------|------4----|-----------------|-----------------|
|-----------|-5----5----|-7-------7-7-7-7-|-7-7-7-7-7-7-7-7-|
|-2----5----|-3----2----|-5-5-5-5-5-5-5-5-|-5-5-5-5-5-5-5-5-|
|-0----3----|-----------|-----------------|-----------------|


  Q=172
  Gtr I
  E   q   E     +E   E  E   E      E  q    E     +E  E E E
|-------------------------------|--------------------------|
|-------------------------------|--------------------------|
|----11---9b10r=(9)-------------|----11----9b10r=(9)-7-----|
|-------------------12--9-------|----------------------9-7-|
|--------------------------12---|--9-----------------------|
|-------------------------------|--------------------------|
|-------------------------------|--------------------------|
|
| Gtr III
| E   q   E     +E   E  E   E      E  q    E     +E  E E E
|-------------------------------|--------------------------|
|-------------------------------|--------------------------|
|-------------------------------|--------------------------|
|----12--11b12r(11)--9----------|----12---11b12r(11)-9-----|
|-----------------------9---9---|----------------------9-9-|
|-------------------------------|-10-----------------------|
|-------------------------------|--------------------------|
|
| Gtr II
| H.                   +E   S S    E  E H              Q
|-------------------------------|--------------------------|
|-------------------------------|--------------------------|
|-------------------------------|--------------------------|
|-------------------------------|--------------------------|
|-------------------------------|--------------------------|
|-2--------------------(2)--2-2-|--2-----------------------|
|-0--------------------(0)--0-0-|--0-----------------------|


   E   q   E     +E   E  E   E      E  q   E     +E   E  E   E
|--------------------------------|-------------------------------|
|--------------------------------|-------------------------------|
|-----12--11b12r(11)-------------|----14--12b13r(12)-11----------|
|--------------------14-12-------|----------------------14--12---|
|-10------------------------14---|-12----------------------------|
|--------------------------------|-------------------------------|
|--------------------------------|-------------------------------|
|
|  E   q   E     +E   E  E   E      E  q   E     +E   E  E   E
|--------------------------------|-------------------------------|
|--------------------------------|-------------------------------|
|--------------------------------|----11-------------------------|
|-----14--12b13r(12)-11----------|--------14b15r(14)-12-11-------|
|-----------------------14-------|--9-----------------------14---|
|-12------------------------15---|-------------------------------|
|--------------------------------|-------------------------------|
|
|  H.                   +E   S S    E  H              E  Q
|--------------------------------|-------------------------------|
|--------------------------------|-------------------------------|
|--------------------------------|-------------------------------|
|--------------------------------|-------------------------------|
|--5--------------------(5)--5-5-|--5----------------------------|
|--3--------------------(3)--3-3-|--2-------------------12\------|
|--------------------------------|----------------------10\------|


   E  q   E     +E  E E E    E   q   E     +E  E E E
|-------------------------|--------------------------|
|-------------------------|--------------------------|
|----11---9b10r=(9)-7-----|-----11---9b10r=(9)-7-----|
|---------------------9-7-|----------------------9-7-|
|--9----------------------|--9-----------------------|
|-------------------------|--------------------------|
|-------------------------|--------------------------|
|
|  E  q   E     +E  E E E    E   q   E     +E  E E E
|-------------------------|--------------------------|
|-------------------------|--------------------------|
|-------------------------|--------------------------|
|----12--11b12r(11)-9-----|-----12--11b12r(11)-9-----|
|---------------------9-9-|----------------------9-9-|
|-10----------------------|-10-----------------------|
|-------------------------|--------------------------|
|
|  W                        +W
|-------------------------|--------------------------|
|-------------------------|--------------------------|
|-------------------------|--------------------------|
|-------------------------|--------------------------|
|-------------------------|--------------------------|
|--2----------------------|-(2)----------------------|
|--0----------------------|-(0)----------------------|


   E  q   Q  E  E  E    +E   E  E  E  E  E  E  E
|--------------------|---------------------------|
|--------------------|---------------------------|
|------------------9-|--(9)-----9-11--9-11--9----|
|-12-12--11--9-12----|------12----------------12-|
|--------------------|---------------------------|
|--------------------|---------------------------|
|--------------------|---------------------------|
|
|  E  q   Q  E  E  E    +E   E  E  E  E  E  E  E
|--------------------|---------------------------|
|--------------------|---------------------------|
|-11-11---9--7-11----|---------------------------|
|-----------------11-|-(11)--9-11-12-11-12-11--9-|
|--------------------|---------------------------|
|--------------------|---------------------------|
|--------------------|---------------------------|
|
|  W                     W
|--------------------|---------------------------|
|--------------------|---------------------------|
|--------------------|---------------------------|
|--------------------|---------------------------|
|--5-----------------|---4-----------------------|
|--3-----------------|---2-----------------------|
|--------------------|---------------------------|


   E  q   E     +E   E E  E    E   q   E     +E  E E E
|---------------------------|--------------------------|
|---------------------------|--------------------------|
|----11---9b10r=(9)---------|-----11---9b10r=(9)-7-----|
|-------------------12-9----|----------------------9-7-|
|--9---------------------12-|--9-----------------------|
|---------------------------|--------------------------|
|---------------------------|--------------------------|
|
|  E  q   E     +E   E E  E    E   q   E     +E  E E E
|---------------------------|--------------------------|
|---------------------------|--------------------------|
|---------------------------|--------------------------|
|----12--11b12r(11)--9------|-----12--11b12r(11)-9-----|
|----------------------9--9-|----------------------9-9-|
|-10------------------------|-10-----------------------|
|---------------------------|--------------------------|
|
|  W                          +W
|---------------------------|--------------------------|
|---------------------------|--------------------------|
|---------------------------|--------------------------|
|---------------------------|--------------------------|
|---------------------------|--------------------------|
|--2------------------------|-(2)----------------------|
|--0------------------------|-(0)----------------------|


   E  q   E     +E   E  E  E    E  q   E     +E   E  E  E
|----------------------------|-----------------------------|
|----------------------------|-----------------------------|
|----12--11b12r(11)----------|----14--12b13r(12)-11--------|
|-------------------14-12----|----------------------14-12--|
|-10----------------------14-|-12--------------------------|
|----------------------------|-----------------------------|
|----------------------------|-----------------------------|
|
|  E  q   E     +E   E  E  E    E  q   E     +E   E  E  E
|----------------------------|-----------------------------|
|----------------------------|-----------------------------|
|----------------------------|----11-----------------------|
|----14--12b13r(12)-11-------|--------14b15r(14)-12-11-----|
|----------------------14----|--9----------------------14--|
|-12----------------------15-|-----------------------------|
|----------------------------|-----------------------------|
|
|  W                            W
|----------------------------|-----------------------------|
|----------------------------|-----------------------------|
|----------------------------|-----------------------------|
|----------------------------|-----------------------------|
|--5-------------------------|--4--------------------------|
|--3-------------------------|--2--------------------------|
|----------------------------|-----------------------------|


   E  q   E     +E  E E E    E   q   E     +E  E E E
|-------------------------|--------------------------|
|-------------------------|--------------------------|
|----11---9b10r=(9)-7-----|-----11---9b10r=(9)-7-----|
|---------------------9-7-|----------------------9-7-|
|--9----------------------|--9-----------------------|
|-------------------------|--------------------------|
|-------------------------|--------------------------|
|
|  E  q   E     +E  E E E    E   q   E     +E  E E E
|-------------------------|--------------------------|
|-------------------------|--------------------------|
|-------------------------|--------------------------|
|----12--11b12r(11)-9-----|-----12--11b12r(11)-9-----|
|---------------------9-9-|----------------------9-9-|
|-10----------------------|-10-----------------------|
|-------------------------|--------------------------|
|
|  W                        +W
|-------------------------|--------------------------|
|-------------------------|--------------------------|
|-------------------------|--------------------------|
|-------------------------|--------------------------|
|-------------------------|--------------------------|
|--2----------------------|-(2)----------------------|
|--0----------------------|-(0)----------------------|


   E  q   Q  E  E  E    +E   E  E  E  E  E  E  E
|--------------------|---------------------------|
|--------------------|---------------------------|
|------------------9-|--(9)-----9-11--9-11--9----|
|-12-12--11--9-12----|------12----------------12-|
|--------------------|---------------------------|
|--------------------|---------------------------|
|--------------------|---------------------------|
|
|  E  q   Q  E  E  E    +E   E  E  E  E  E  E  E
|--------------------|---------------------------|
|--------------------|---------------------------|
|-11-11---9--7-11----|---------------------------|
|-----------------11-|-(11)--9-11-12-11-12-11--9-|
|--------------------|---------------------------|
|--------------------|---------------------------|
|--------------------|---------------------------|
|
|  W                     W
|--------------------|---------------------------|
|--------------------|---------------------------|
|--------------------|---------------------------|
|--------------------|---------------------------|
|--5-----------------|---4-----------------------|
|--3-----------------|---2-----------------------|
|--------------------|---------------------------|


    Q=161
    Gtr I
                                        T
    S  S  S  S  S  S  S  S  S  S  S  S  S  S  S  S
||-------------10-14p10----------10-14-15p14p10----|
||----------12----------12----12----------------12-|
||o------11----------------11----------------------|
||--9-12-------------------------------------------|
||o------------------------------------------------|
||-------------------------------------------------|
||-------------------------------------------------|
|
|   Gtr II
|   PM----------------------------------------------
|   S  S  E     S  S  q           q           S  S
||-------------------------------------------------|
||-------------------------------------------------|
||o------------------------------------------------|
||-------------------------------------------------|
||o------------------------------------------------|
||--2--2--2-----2--2--2-----------2-----------2--2-|
||--0--0--0-----0--0--0-----------0-----------0--0-|


                                      T
  S  S  S  S  S  S  S  S  S  S  S  S  S  S  S  S
|------------10-14p10----------10-14-15p14p10-----|
|---------12----------12----12----------------12--|
|------11----------------11-----------------------|
|-9-12--------------------------------------------|
|-------------------------------------------------|
|-------------------------------------------------|
|-------------------------------------------------|
|
|------------------------------------------|
| q           q           S  S  E     S  S  E
|-------------------------------------------------|
|-------------------------------------------------|
|-------------------------------------------------|
|-------------------------------------------------|
|-------------------------------------------------|
|-2-----------2-----------2--2--2-----2--2--2-----|
|-0-----------0-----------0--0--0-----0--0--0-----|


                              T
   S S S S S  S S S S S S  S  S  S S S
|----------7-10p7-------7-10-11p10p7---|
|--------8--------8---8--------------8-|
|------7------------7------------------|
|----9---------------------------------|
|-10-----------------------------------|
|--------------------------------------|
|--------------------------------------|
|
|  PM-----------------------------------
|  S S E   S  S q       q          S S
|--------------------------------------|
|--------------------------------------|
|--------------------------------------|
|--------------------------------------|
|--------------------------------------|
|--3-3-3---3--3-3-------3----------3-3-|
|--1-1-1---1--1-1-------1----------1-1-|


                              T
   S S S S S  S S S S S S  S  S  S S S
|----------7-10p7-------7-10-11p10p7----||
|--------8--------8---8--------------8--||
|------7------------7------------------o||
|----9----------------------------------||
|-10-----------------------------------o||
|---------------------------------------||
|---------------------------------------||
|
|----------------------------------|
|  q       q        S S E     S  S E
|---------------------------------------||
|---------------------------------------||
|--------------------------------------o||
|---------------------------------------||
|--------------------------------------o||
|--3-------3--------3-3-3-----3--3-3----||
|--1-------1--------1-1-1-----1--1-1----||


    Gtr I
                                         T
     S  S  S  S  S  S  S  S  S  S  S  S  S  S  S  S
||--------------10-14p10----------10-14-15p14p10----|
||-----------12----------12----12----------------12-|
||o-------11----------------11----------------------|
||---9-12-------------------------------------------|
||o-------------------------------------------------|
||--------------------------------------------------|
||--------------------------------------------------|
|
|   Gtr II
|    S  S  S  S  S  S  S  S  S  S  S  S  S  S  S  S
||--------------14-17-14----------14-17-19-17-14----|
||-----------15----------15----15----------------15-|
||o-------14----------------14----------------------|
||-----16-------------------------------------------|
||o-17----------------------------------------------|
||--------------------------------------------------|
||--------------------------------------------------|
|
|   Gtr III
|    PM----------------------------------------------
|    S  S  E     S  S  q           q           S  S
||--------------------------------------------------|
||--------------------------------------------------|
||o-------------------------------------------------|
||--------------------------------------------------|
||o-------------------------------------------------|
||---2--2--2-----2--2--2-----------2-----------2--2-|
||---0--0--0-----0--0--0-----------0-----------0--0-|


                                       T
   S  S  S  S  S  S  S  S  S  S  S  S  S  S  S  S
|-------------10-14p10----------10-14-15p14p10-----|
|----------12----------12----12----------------12--|
|-------11----------------11-----------------------|
|--9-12--------------------------------------------|
|--------------------------------------------------|
|--------------------------------------------------|
|--------------------------------------------------|
|
|  S  S  S  S  S  S  S  S  S  S  S  S  S  S  S  S
|-------------14-17-14----------14-17-19-17-14-----|
|----------15----------15----15----------------15--|
|-------14----------------14-----------------------|
|----16--------------------------------------------|
|-17-----------------------------------------------|
|--------------------------------------------------|
|--------------------------------------------------|
|
|-------------------------------------------|
|  q           q           S  S  E     S  S  E
|--------------------------------------------------|
|--------------------------------------------------|
|--------------------------------------------------|
|--------------------------------------------------|
|--------------------------------------------------|
|--2-----------2-----------2--2--2-----2--2--2-----|
|--0-----------0-----------0--0--0-----0--0--0-----|


                                       T
   S  S  S  S  S  S  S  S  S  S  S  S  S  S  S  S
|--------------7-10p=7-----------7-10-11p10p=7------|
|-----------8-----------8-----8-----------------8---|
|--------7-----------------7------------------------|
|-----9---------------------------------------------|
|-10------------------------------------------------|
|---------------------------------------------------|
|---------------------------------------------------|
|
|                                      T
|  S  S  S  S  S  S  S  S  S  S  S  S  S  S  S  S
|-------------10-14p10----------10-14-15p14p10------|
|----------12----------12----12----------------12---|
|-------11----------------11------------------------|
|--9-12---------------------------------------------|
|---------------------------------------------------|
|---------------------------------------------------|
|---------------------------------------------------|
|
|  PM------------------------------------------------
|  S  S  E     S  S  q           q           S    S
|---------------------------------------------------|
|---------------------------------------------------|
|---------------------------------------------------|
|---------------------------------------------------|
|---------------------------------------------------|
|--3--3--3-----3--3--3-----------3-----------3----3-|
|--1--1--1-----1--1--1-----------1-----------1----1-|


                                       T
   S  S  S  S  S  S  S  S  S  S  S  S  S  S  S  S
|--------------7-10p=7-----------7-10-11p10p=7------||
|-----------8-----------8-----8-----------------8---||
|--------7-----------------7-----------------------o||
|-----9---------------------------------------------||
|-10-----------------------------------------------o||
|---------------------------------------------------||
|---------------------------------------------------||
|
|                                      T
|  S  S  S  S  S  S  S  S  S  S  S  S  S  S  S  S
|-------------10-14p10----------10-14-15p14p10------||
|----------12----------12----12----------------12---||
|-------11----------------11-----------------------o||
|--9-12---------------------------------------------||
|--------------------------------------------------o||
|---------------------------------------------------||
|---------------------------------------------------||
|
|-------------------------------------------|
|  q           q           S  S  E     S  S  E
|---------------------------------------------------||
|---------------------------------------------------||
|--------------------------------------------------o||
|---------------------------------------------------||
|--------------------------------------------------o||
|--3-----------3-----------3--3--3-----3--3--3------||
|--1-----------1-----------1--1--1-----1--1--1------||


Duration Legend
---------------
W - whole; H - half; Q - quarter; E - 8th; S - 16th; T - 32nd; X - 64th; a - acciaccatura
+ - note tied to previous; . - note dotted; .. - note double dotted
Uncapitalized letters represent notes that are staccato (1/2 duration)
Irregular groupings are notated above the duration line
Duration letters will always appear directly above the note/fret number it represents the
duration for.  Duration letters with no fret number below them represent rests.  Multi-
bar rests are notated in the form Wxn, where n is the number of bars to rest for.  Low
melody durations appear below the staff

Tablature Legend
----------------
 h   - hammer-on
 p   - pull-off
 b   - bend
 pb  - pre-bend
 r   - bend release (if no number after the r, then release immediately)
 /\  - slide into or out of (from/to "nowhere")
 s   - legato slide
 S   - shift slide
  - natural harmonic
[n]  - artificial harmonic
n(n) - tapped harmonic
 ~   - vibrato
 tr  - trill
 T   - tap
 TP  - trem. picking
 PM  - palm muting
\n/  - tremolo bar dip; n = amount to dip
 \n  - tremolo bar down
 n/  - tremolo bar up
/n\  - tremolo bar inverted dip
 =   - hold bend; also acts as connecting device for hammers/pulls
 <>  - volume swell (louder/softer)
 x   - on rhythm slash represents muted slash
 o   - on rhythm slash represents single note slash

Misc Legend
-----------
 |  - bar
||  - double bar
||o - repeat start
o|| - repeat end
*|  - double bar (ending)
 :  - bar (freetime)
 $  - Segno
 &  - Coda
Tempo markers -  = BPM(8/16=s8/s16), where s8 = swing 8ths, s16 = swing 16ths


***************************************************************************************
***************************************************************************************





Comments


Popular Unearth tabs & chords
One Step Away Bass Tabs
Bloodlust Of The Human Condition 1 Tabs
Endless 1 Tabs
Last Wish Tabs
Stronghold Intro Tabs
The Great Dividers 1 Tabs
This Lying World Tabs
This Lying World Intro Tabs
Zombie Autopilot 4 Tabs
Zombie Autopilot 5 Tabs


Song lyrics



↑ Back to top | Tablatures and chords are parodies/interpretations of the original songs. You may use it for private study, scholarship, research or language learning purposes only
© 2014 AZChords.com Contact us | Privacy policy | DMCA | Add/correct tabs | Request tabs | Top 50 tabs