» » »

Underoath, When The Sun Sleeps Tabs (ver.3)

Artists:  A B C D E F G H I J K L M N O P Q R S T U V W X Y Z # 

When The Sun Sleeps Tabs (ver.3)

Underoath Tabs
Rating:
0/5 (0 votes)
When The Sun Sleeps lessons Tabs too difficult? Try these video lessons and learn fast
                i really wanted to know how to play this song so i looked for it on here and found the intor done by someone that didnt' show their name but i learend the intro form him and htat helped me figure out the rest of the song on my own so here is the entire song minus the intor which is already done perfectly by someone else, i garenttee this matches the intor so enjoy all those who have wanted to learn underoath's when the sun sleeps...

verse 1/play as chords
(whenever i put "x8" or any number the whole chord is played that many times before moving on to the next chord)
E
B               
G
D ----9--- x8 ---------7----------------9---- x8 -------7--------------5--- x32 ----
A ----7-----------------9---- x8 -------7----------------5--- x8 ------3--------------
E

chorus/play as chords

D ------5----------7--------9---------------7--------------------
A-------3----------5--------7---------------5--------------------
      "close....my......eyes................just for tonight"          

part after chorus/intro to verse 2 and verse 2

D -------9----9----9----9----9---9--------9----9----9----7----7----7-----
A ----7----7----7---9----9----9---------7----7---7----5----5----5---------

D ---------9---5------------9----5---------
A -----3-----------3----5------------5-----

bridge x4/ play as chords
*(the fourth time on this part the other guitarist does somethign like this,.... D---5----7----9----7----- all palm muted)
           A---3----5----7----5-----

G --------------------------------7-----------------------------------
D -----------------------9---------------9----------9----------------
A -----10--10--10--------10--------------10--------10---------

G -------------------------------7----------------------------------
D -------------------9--------------9-------9----------------------
A -----9--9--9----------9--------------9-------9----------------

* G -----------------------------7------------------------------------
  D -----------------9----------------9-------9----------------------
  A ----7--7--7---------7---------------7-------7------------------

G -------------------------------7-----------------------------------
D -------------------9--------------9-------9----------------------
A -----9--9--9----------9--------------9-------9-----------------


ending part 1/ play as chords
                     D ------5---------------7--- x16 ---9/10/9---------7------------
                     A ------3-- x16 ------5-------------7/8/7---------5--- x16---
"and..when..she......wakes"


D -----5------------------------------------7--------------------9/10/9-----------7---------------
A -----3- x16-----------------------------5--- x16 ----------7/8/7------------5----- x16----
"..........you'll..be..a..memory.."


(make this part sorta sound choppy)
D -----5---------7----------9---------7-----------
A -----3---------5----------7---------5-----------


closer

D ----------9------5-----12-----9------5--------------
A ----5------------------------------------------3-------
            

comments powered by Disqus
↑ Back to top | Underoath Tabs for When The Sun Sleeps. Lyrics for acoustic guitar and electric guitar. Tablatures and chords are parodies/interpretations of the original songs. You may use it for private study, scholarship, research or language learning purposes only