» » »

Underoath, When The Sun Sleeps Tabs (ver.2)

Artists:  A B C D E F G H I J K L M N O P Q R S T U V W X Y Z # 

When The Sun Sleeps Tabs (ver.2)

Underoath Tabs
Rating:
0/5 (0 votes)
When The Sun Sleeps lessons Tabs too difficult? Try these video lessons and learn fast
                Hey all, ive heard of requests for this song and i tabbed the intro a while ago but I never got around to posting it.This song is awesome, as soon as i figure out the rest ill post it but for now it'll have to do.Underoath kicks ass.I'm not 100% sure on this but it sounds *** close so have a play around with it and see what you think. Please rate this tab.

Underoath-When The Sun Sleeps(The Changing Of Times LP).
Tuning:Standard(Low to high: E, A, D, G, B, E)
Key: \-Slide Up. /-Slide Down.
B---------------------------------------------------------0--------0-----|
G-------0-------------0--0---------0---------0----0---------0--------0---|
D----9----9-------9-----9--9---9-----9----7----7---7---5---------5-------|
A--7---7------7\9---9---------7--7-----7/5--5---------3--3-----3---3-----|
--------------

B-----------------------------------------------------------------------|
G------12-12-12---11-11-11------12----11-12-11-14----12----11-12-11-14--|
D---5------------------------12----12--------------12---12--------------|
A-3---------------------------------------------------------------------|
(you play the 12, 11,12,11,14 bit 3 times so, even though it is only tabbed out to be played twice here, it is played three times. listen to the song to see what i mean.)
(these last 2 3,5 notes played very lightly, then play 12's and 11's harder and louder,listen to song to see what I mean here also.)(12's and 11's not 1's and 2's)

After the above riff, there can be heard two very high notes before the vocalist screams "I THOUGHT YOU'D COME BACK!!"

substitute these notes as it is hard to determine where they are played(they even may be keyboard samples..)
a possible example is..
(high)E-22--21-|

Ill tab the rest when i get a chance. Remember to rate my tab accordingly. Have fun!!
Thanks to underoath for making this wicked song.Rock on.
            
Submit corrections

comments powered by Disqus
↑ Back to top | Underoath Tabs for When The Sun Sleeps. Lyrics for acoustic guitar and electric guitar. Tablatures and chords are parodies/interpretations of the original songs. You may use it for private study, scholarship, research or language learning purposes only