» » »

It's Dangerous Business Walking Out Your Front Door Tabs (ver.2)

Artists:  A B C D E F G H I J K L M N O P Q R S T U V W X Y Z # 

It's Dangerous Business Walking Out Your Front Door Tabs (ver.2)

Underoath
Rating:
0/5 (0 votes)

Hard to play? Try these video lessons and learn fast.
                
Intro (yeah it's short)

Guitar 1
e-----------------------|
B-0---------------------|
G-9---------------------|
D-10-(x3)---------------|
A-7---------------------|
D-7---------------------|

Guitar 2
e-----------------------|
B-----------------------|
G-----------------------|
D---------10-(x3)-------|
A---------7-------------|
D---------7-------------|

Verse:

Guitar 1
e-------------------------------------------------|
B-------------------------------------------------|
G--9-------------5--------------------------------|
D--x--(xalot)----x-(xalot)-0------5-(x6)----------|
A--7-------------3---------0-(x6)-5---------------|
D--------------------------0------5---------------|

Guitar 2
e------------------------------------------------|
B------------------------------------------------|
G------------------------------------------------|
D--10-------------5--------0------5--------------|
A--7--(x3)-(x2)---3-(x3)---0-(x6)-5(x6)----------|
D--7--------------3--------0------5--------------|

wait for the break to be over (crazy keyboardist!)

Guitar 1
e-x-----------------------------|
B-x-------0---------------------|
G-x-------9---------------------|
D-x-(x8)--10--------------------|
A-x-------7---------------------|
D-x-------7---------------------|

somewhere in the long hold he pulls out some harmonics
on like 5th fret G or something along those lines

Guitar 2
e-x-----------------------------|
B-x-----------------------------|
G-x-----------------------------|
D-x-(x8)--10--------------------|
A-x-------7---------------------|
D-x-------7---------------------|

Chorus 1:

Guitar 1
there's a really muddy clean effect with a
phaser or something on it so i can't make
it out clearly but it basically follows this progression:
Am  Am  F  G  (x4)
i think the forms are something like this
e------------------------------------|
B-0--------0-------0-----------------|
G-9--------9-------10----------------|
D-10-(x16)-10-(x8)-10--(x8)----------|
A----------8-------10----------------|
D------------------------------------|
or this
e------------------------------------|
B-0--------0-------0-----------------|
G-9--------10------12----------------|
D-10-(x16)-10-(x8)-12--(x8)----------|
A----------8-------10----------------|
D------------------------------------|

honestly i just can't make it out... maybe someone else can

anyways

after the soft chorus swell on and then sturm this chord until
about 1:40 in the song

Guitar 1
e-------------------------------|
B-0-----------------------------|
G-9-----------------------------|
D-10-(xa zillion)---------------|
A-7-----------------------------|
D-7-----------------------------|

or some funky harmonic stuff and have 2 play that part

Guitar 2
e----------------------|
B----------------------|
G----------------------|
D---10-----------------|(xas long as 1)
A---7------------------|
D---7------------------|

now on the chorus guitar 2 plays the same thing both times
Guitar 2
e-----------------------------------------------|
B-----------------------------------------------|
G-----------------------------------------------|
D-10-------5------5-----------------------------|
A-7--(x16)-3-(x8)-5-(x8)------------------------|
D-7--------3------5-----------------------------|

Guitar 1
first time through chorus:
(not too sure about this one either, it's probably whatever
the first chorus was only with distortion)
e------------------------------------------------|
B--0---------------------------------------------|
G--9----------10------12-------------------------|
D--10-(x16)---10-(x8)-12-(x8)--------------------|
A-(0 or 7*)---8-------10-------------------------|
D-(7*)-------------------------------------------|

*those two 7's may be there, or it may just be the one on A
or they may not be there at all, or A is being played open ...
once again, it's hard to make out

second time through chorus:
(i'm sure on this one though)
e---------------------------------------------------|
B---------------------------------------------------|
G--14-------12------------------17------16----------|
D--x--(x13)-x--(x3)-------------x--(x8)-x--(x8)-----|
A--12-------10------------------15------14----------|
D-----------------(section x 3)---------------------|


Bridge:

Guitar 1:
e---------------------------------------------------------------------|
B--------------------------------0------------------------------------|
G--14-14-12-12-------------------9----(hold)--------------------------|
D--x--x--x--x--(x8)--------------10-----------------------------------|
A--12-12-10-10--------------------------------------------------------|
D---------------------------------------------------------------------|


Guitar 2:
e--------------------------------------------------|
B--------------------------------------------------|
G----------------(section x2)----------------------|
D-2------3------7------5---------10*---------------|
A-2-(x6)-3-(x6)-7-(x6)-5-(x6)----7*---(hold)-------|
D-2------3------7------5---------7*----------------|
*i can't make out what chord that is so i just put in the
basic one from the song

then the sick drum section and "drowning in my sleep"
then...
Verse 3:

Guitar 1 (first time through)
e------------------------------------------------------------|
B-8----------------------------------------------------------|
G-9--------------5-------------------------------------------|
D-10-(x3)-(x2)---5-(x3)-0------5-----------------------------|
A-7--------------3------0-(x3)-5-(x3)------------------------|
D-7--------------3------0------5-----------------------------|


Guitar 1 (second time through)
e-------------------------------------------------|
B-------------------------------------------------|
G--9-------------5--------------------------------|
D--x--(xalot)----x-(xalot)-0------5-(x6)----------|
A--7-------------3---------0-(x6)-5---------------|
D--------------------------0------5---------------|

Guitar 2
e------------------------------------------------|
B------------------------------------------------|
G------------------------------------------------|
D--10-------------5--------0------5--------------|
A--7--(x3)-(x2)---3-(x3)---0-(x6)-5-(x6)---------|
D--7--------------3--------0------5--------------|


finish with chorus... rewritten for convinience
guitar 2 plays the same thing both times
Guitar 2
e-----------------------------------------------|
B-----------------------------------------------|
G-----------------------------------------------|
D-10-------5------5-----------------------------|
A-7--(x16)-3-(x8)-5-(x8)------------------------|
D-7--------3------5-----------------------------|

Guitar 1
first time through chorus:
e------------------------------------------------|
B--0---------------------------------------------|
G--9----------10------12-------------------------|
D--10-(x16)---10-(x8)-12-(x8)--------------------|
A-(0 or 7*)---8-------10-------------------------|
D-(7*)-------------------------------------------|

*see earlier note

second time through chorus:
e---------------------------------------------------|
B---------------------------------------------------|
G--14-------12------------------17------16----------|
D--x--(x13)-x--(x3)-------------x--(x8)-x--(x8)-----|
A--12-------10------------------15------14----------|
D-----------------(section x 3)---------------------|


end on this
Guitar 1
e---------------------------------------------|
B---------------------------------------------|
G--14-----------------------------------------|
D--x------------------------------------------|
A--12-----------------------------------------|
D---------------------------------------------|

Guitar 2
e---------------------------------------------|
B--0------------------------------------------|
G--9------------------------------------------|
D--10-----------------------------------------|
A--7------------------------------------------|
D--7------------------------------------------|

there's some harmonics at the end as well, but i'm pretty
sure that it's double tracked


anyways that's the song... hope you enjoy it
            
Hard to play? Try these video lessons and learn fast. | Correct




comments powered by Disqus
↑ Back to top | Tablatures and chords are parodies/interpretations of the original songs. You may use it for private study, scholarship, research or language learning purposes only