» » »

Underoath, It's Dangerous Business Walking Out Your Front Door Tabs (ver.3)

Artists:  A B C D E F G H I J K L M N O P Q R S T U V W X Y Z # 

It's Dangerous Business Walking Out Your Front Door Tabs (ver.3)

Underoath Tabs
Rating:
0/5 (0 votes)
It's Dangerous Business Walking Out Your Front Door lessons Tabs too difficult? Try these video lessons and learn fast
                
First tab. So dont be disappointed.

e|------------------------|
B|-0-0-0-0-0-0------------|
G|-5-5-5-5-5-5------------|
D|-5-5-5-5-5-5------------|
A|-0-0-0-0-0-0------------|
D|------------------------|

e|------------------------|
B|-0-0-0------------------|
G|-5-5-5--9---------------|
D|-5-5-5--x-(x12)---------|   (x2)
A|-0-0-0--7---------------|
D|------------------------|

e|------------------------|
B|------------------------|
G|-5-5-5--5---------------|
D|-5-5-5--x-(x12)---------|
A|-3-3-3--3---------------|
D|-3-3-3------------------|

e|--------------------------|
B|--------------------------|
G|--------------------------|
D|-0-0-0-0-0-0-5-5-5-5-5-5-5|
A|-0-0-0-0-0-0-5-5-5-5-5-5-5|
D|-0-0-0-0-0-0-5-5-5-5-5-5-5|

e|-xxxx-xxxx--------------|
B|-xxxx-xxxx--0~----------|
G|-xxxx-xxxx--5~----------|
D|-xxxx-xxxx--5~----------|
A|-xxxx-xxxx--0~----------|
D|-xxxx-xxxx--------------|

My...Knuckles have turned to white...

e|------------------------|
B|-0----------------------|
G|-5----------------------|
D|-5--(xA lot)------------|
A|-0----------------------|
D|------------------------|

 Chorus

e|------------------------|
B|-0----------------------|
G|-5----------------------|
D|-5-(x12)0------5--------|   (x4)
A|-0------0-(x6)-5-(x6)---|
D|--------0------5--------|

 Bridge

e|----------------------------|
B|----------------------------|
G|----------------------------|
D|-0------3------7------5-----|
A|-0-(x6)-3-(x6)-7-(x6)-5-(x6)|
D|-0------3------7------5-----|

e|------------------------|
B|------------------------|
G|-0~---------------------|
D|-5~---------------------|
A|-5~---------------------|
D|-0~---------------------|

Drum solo...

Drowning in my sleep...

 xBREAKDOWN!x
e|------------------------|
B|-0-0-0--0-0-0--0-0-0----|
G|-5-5-5--5-5-5--5-5-5----|
D|-5-5-5--5-5-5--5-5-5----|
A|-0-0-0--0-0-0--0-0-0----|
D|------------------------|

e|-------------------------|
B|-------------------------|
G|-------------------------|
D|-0-0-0-0-0-0-5-5-5-5-5-5-|
A|-0-0-0-0-0-0-5-5-5-5-5-5-|
D|-0-0-0-0-0-0-5-5-5-5-5-5-|

e|------------------------|
B|------------------------|
G|-0-0-0--9---------------|
D|-5-5-5--x-(x12)---------|  (x2)
A|-5-5-5--7---------------|
D|-0-0-0------------------|

e|------------------------|
B|------------------------|
G|-5-5-5--5---------------|
D|-5-5-5--x--(x12)--------|
A|-3-3-3--3---------------|
D|-3-3-3------------------|

e|---------------------------|
B|---------------------------|
G|---------------------------|
D|-0-0-0-0-0-0-5-5-5-5-5-5-5-|
A|-0-0-0-0-0-0-5-5-5-5-5-5-5-|
D|-0-0-0-0-0-0-5-5-5-5-5-5-5-|

Repeat Chorus till the end.

Listen to the song to get rhythm.
            

comments powered by Disqus
↑ Back to top | Underoath Tabs for It's Dangerous Business Walking Out Your Front Door. Lyrics for acoustic guitar and electric guitar. Tablatures and chords are parodies/interpretations of the original songs. You may use it for private study, scholarship, research or language learning purposes only