» » »

A Boy Brushed Red Living In Black White Bass tabs (ver.1)

Artists:  A B C D E F G H I J K L M N O P Q R S T U V W X Y Z # 

A Boy Brushed Red Living In Black White Bass tabs (ver.1)

Underoath
Rating:
3/5 (4 votes)

Hard to play? Try these video lessons and learn fast.
                After Guitar intro
G|----------------------------------|
D|----------------------------------|
A|-4444-44444-4444-0000-00000-0000--|
D|----------------------------------|

G|------------------------------------------|
D|------------------------------------------|
A|------------------------------------------|
D|-9999--99999--9999 -4444-44444-4444-------|


Verse 3X
G|------------------------------------------------------------------|
D|------------------------------------------------------------------|
A|-444444444444444-000000000000000-222222222222222------------------|
D|-------------------------------------------------4444444444444444-|

"Here is where we both go wrong"
G|-------------------------------------|
D|-------------------------------------|
A|-4444-44444-4444-0000-00000-0000-----|
D|-------------------------------------|

G|--------------------------------------------|
D|--------------------------------------------|
A|--------------------------------------------|
D|-9999--99999--9999-4444-44444-4444----------|

"So tie me up..."
G|-------------------------------------|
D|-------------------------------------|
A|-4444-44444-4444-0000-00000-0000-----|
D|-------------------------------------|

G|--------------------------------------------|
D|--------------------------------------------|
A|--------------------------------------------|
D|-9999--99999--9999-4444-44444-4444----------|


PreChorus (2X)
G|------------------------------------------------------------------|
D|------------------------------------------------------------------|
A|-0-0-0000-000-000-0-0-000-0-000-000-------------------------------|
D-----------------------------------4-4-444-4-444-444-44-4444-44444-|

G|-------------------------------------------------------------|
D|-------------------------------------------------------------|
A|-0-0-0000-000-000-0-0-000-0-000-000--------------------------|
D|------------------------------------4-4-44-4-4-4-4/6666666---|


Chorus
G|-------------------------------------|
D|-------------------------------------|
A|-4-4-444-0-00-000---------0-0000000--|
D|------------------4-4-444------------|

G|-------------------------------------|
D|-------------------------------------|
A|-4-4-444-0-00-000- -------0-0000000--|
D|------------------4-4-444------------|


Chorus Part 2 (Actually is the keyboard part arranged for guitar)
G|-------------------------------------------------|
D|-- ----------------------------------------------|
A|--9--9--9-9-9-12-12-121212-15-15-151515-7-7-777--|
D|-------------------------------------------------|

G|-------------------------------------------------|
D|-------------------------------------------------|
A|--9--9--9-9-9-12-12-121212-11-11-111111-7-7-777--|
D|-------------------------------------------------|


Verse 2
G|--[well look------------------------------------------------------|
D|---who's dying----------------------------------------------------|
A|----now]--------000000000000000-222222222222222-------------------|
D|------------------------------------------------4444444444444444--|

"It doesn't matter what you say..."
G|------------------------------------------------------------------|
D|------------------------------------------------------------------|
A|-444444444444444-000000000000000-222222222222222------------------|
D|-------------------------------------------------4444444444444444-|


Pre Chorus 2 (2X)
G|------------------------------------------------------------------|
D|------------------------------------------------------------------|
A|-0-0-0000-000-000-0-0-000-0-000-000-------------------------------|
D|-----------------------------------4-4-444-4-444-444-44-444444444-|

G|---------------------------------------------------------------|
D|---------------------------------------------------------------|
A|-0-0-0000-000-000-0-0-000-0-000-000----------------------------|
D|------------------------------------4-4-44-4-4-4-4/6666666-----|


Chorus 2 (Same as guitar one)
G|--------------------------------------|
D|--------------------------------------|
A|-4-4-444-0-00-000---------0-00-0000---|
D|------------------4-4-444-------------|

G|--------------------------------------|
D|--------------------------------------|
A|-4-4-444-0-00-000---------0-0000000---|
D|------------------4-4-444-------------|

G|--------------------------------------|
D|--------------------------------------|
A|-4-4-444-0-00-000---------0-00-0000---|
D|------------------4-4-444-------------|

G|--------------------------------------|
D|--------------------------------------|
A|-4-4-444-0-00-000---------0-0000000---|
D|------------------4-4-444-------------|


Breakdown

"Don't Shake, I hate to see you TREMBLE.."
G|-----------------------|-----------------------|
D|-----------------------|-----------------------|
A|-----------------------|-----------------------|
D|-7777x-777x-4444x-444x-|--77777777--44444444---|
           X2                       X2

Quiet Part (Clean)
G|6~---~---~---~---~---~---~-----------------------------------------|
D|-~---~---~---~---~---~---------------------------------------------|
A|-4~---0~---~---0~---4~---0~---~------------------------------------|
D|-----------4~------------------4~----------------------------------|


Last Chorus (listen for initial octaves fill here)
G|-------------------------------------|
D|-------------------------------------|
A|-4-4-444-0-00-000---------0-00-0000--|
D|------------------4-4-444------------|

G|------------------------------------|
D|------------------------------------|
A|-4-4-444-0-00-000--------0-00-0000--|
D|------------------4-4-444-----------|

G|-------------------------------------|
D|-------------------------------------|
A|-4-4-444-0-00-000---------0-00-0000--|
D|------------------4-4-444------------|

G|------------------------------------|
D|------------------------------------|
A|-4-4-444-0-00-000--------0-00-0000--|
D|------------------4-4-444-----------|
            
Hard to play? Try these video lessons and learn fast. | Correct




comments powered by Disqus
↑ Back to top | Tablatures and chords are parodies/interpretations of the original songs. You may use it for private study, scholarship, research or language learning purposes only