» » »

A Boy Brushed Red Living In Black White Bass tabs (ver.3)

Artists:  A B C D E F G H I J K L M N O P Q R S T U V W X Y Z # 

A Boy Brushed Red Living In Black White Bass tabs (ver.3)

Underoath
Rating:
5/5 (5 votes)

Hard to play? Try these video lessons and learn fast.
                Underoath 
intro 
G --------------------------------------------------------|1x 
D --------------------------------------------------------| 
A 444-4-444-4--0000-0-0000-0--2222-2-2222-2---------------| 
D ------------------------------------------4444-4-4444-4-| 

verse 
G -----------------------------------------------------------------------|2x 
D -----------------------------------------------------------------------| 
A 4444444444444444--0000000000000000--2222222222222222-------------------| 
D -----------------------------------------------------4444444444444444--| 

G --------------------------------------------------------|2x 
D --------------------------------------------------------| 
A 444-4-444-4--0000-0-0000-0--2222-2-2222-2---------------| 
D ------------------------------------------4444-4-4444-4-| 


chorus 
G ------------------------------------------------------------------------------|2x 
D ------------------------------------------------------------------------------| 
A 00-0000-00-000000000----------------------------------------------------------| 
D --------------------44-4444-44-4444-44444444----------------------------------| 

G --------------------------------------------------------|1x 
D --------------------------------------------------------| 
A 444-4-444-4--0000-0-0000-0--2222-2-2222-2---------------| 
D ------------------------------------------4444-4-4444-4-| 

chrorus 2 
G ------------------------------------------------------------------------------|2x 
D ------------------------------------------------------------------------------| 
A 44444--0000000-22222222-------------------------------------------------------| 
D -----------------------44444444-----------------------------------------------| 

verse 
G -----------------------------------------------------------------------|2x 
D -----------------------------------------------------------------------| 
A 4444444444444444--0000000000000000--2222222222222222-------------------| 
D -----------------------------------------------------4444444444444444--| 


 
chorus 
G ------------------------------------------------------------------------------|2x 
D ------------------------------------------------------------------------------| 
A 00-0000-00-000000000----------------------------------------------------------| 
D --------------------44-4444-44-4444-44444444----------------------------------|  

G --------------------------------------------------------|1x 
D --------------------------------------------------------| 
A 444-4-444-4--0000-0-0000-0--2222-2-2222-2---------------| 
D ------------------------------------------4444-4-4444-4-|  

chrorus 2 
G ------------------------------------------------------------------------------|2x 
D ------------------------------------------------------------------------------| 
A 44444--0000000-22222222-------------------------------------------------------| 
D -----------------------44444444-----------------------------------------------| 

breakdown 
G ----------------------------------------------------------------------|1x 
D ----------------------------------------------------------------------| 
A 4444-44-0000-00-2222-22--------44444444--00000000--22222222-----------| 
D -----------------------444-44------------------------------44444444---| 


chrorus 2 
G ------------------------------------------------------------------------------|2x 
D ------------------------------------------------------------------------------| 
A 44444--0000000-22222222-------------------------------------------------------| 
D -----------------------44444444-----------------------------------------------| 


G --------------------------------------------------------|2x 
D --------------------------------------------------------| 
A 444-4-444-4--0000-0-0000-0--2222-2-2222-2---------------| 
D ------------------------------------------4444-4-4444-4-|
            
Hard to play? Try these video lessons and learn fast. | Correct




comments powered by Disqus
↑ Back to top | Tablatures and chords are parodies/interpretations of the original songs. You may use it for private study, scholarship, research or language learning purposes only