» » »

Uncle Kracker, Follow Me Chords (ver.1)

Artists:  A B C D E F G H I J K L M N O P Q R S T U V W X Y Z # 

Follow Me Chords (ver.1)

Uncle Kracker Tabs
 Rating:
3.4/5 (11 votes)
Follow Me lessons Tabs too difficult? Try these video lessons and learn fast
                
REAL FANS SUPPORT BANDS BY PURCHASING THEIR CD'S!!!


Tuning: Standard

Capo 5 (Chords are relative to the capo!)


. = Palm-Muted
~ = hold note
^ = vibrate
p = pull off
h = hammer on
/ = slide up
\ = slide down


Chords:
    C   F   G   Em  Dm D/F#
E---0---------------1---2-----------|
B---1---1---3—--0---3---3-----------|
G---0---2---0---0---2---2-----------|
D---2---3---0---2---0---0-----------|
A---3---3---2---2-------x-----------|
E------(1)--3---0-------2-----------|


Intro-Riff: (during riffs/solos the x’s mark a ¼ being left out in the beat)
E--------------------------------------------------------------------------|
B---3h5-3--1---1----------x-3--x-3/5-------3h5-3--1---1--------x-1/3--x-1--|
G------------2---2-0--------------------------------2---2-0----------------|
D---------------------2-------------------------------------2--------------|
A--------------------------------------------------------------------------|
E--------------------------------------------------------------------------|

NOTE: I prefer to play a constant   C     F  G    during verse and chorus
      So these are just the exact chords according to bass and organ.
      Try out a   C  C  F  G  pattern if you are unhappy with this one ☺
      Enjoy and keep it easy in the comments if posting!

RIFFS and SOLO on bottom!



$$ No Guitar yet $$


You don't know how you met me you don't know why

You can't turn around and say good bye
        C                           F
All you know is when I'm with you I make you free
    C RIFF                          F    G      C
And swim through your veines like a fish in the sea



$$ Actually no guitar/organ but here are the chords $$


            C       (Em)         F          G
I'm singing   follow me and everything is alright
C            (Em)             F     G
  I'll be the one to tuck you in at night
           C        (Em)         F     G
And if you   want to leave I can guarantee
          C RIFF      F    G    C
You won't find nobody else like me


C                           F
  I'm not worried about the ring you wear
         C                         F   G      C
Cause as long as no one knows that nobody can care
C                           F
  You're feeling guilty and I am well aware
    C                               F   G   C
But you don't look ashamed and baby I'm not scared


            C       (Em)         F          G
I'm singing   follow me and everything is alright
C            (Em)             F     G
  I'll be the one to tuck you in at night
           C        (Em)         F     G
And if you   want to leave I can guarantee
          C RIFF      F    G    C
You won't find nobody else like me


$$  SOLO  $$


Dm                               G
   Won't give you money, I can't give you the sky
C
   You're better off if you don't ask why
Dm                         D/F#
   I'm not the reason that you going strange
G
   We'll be alright if you don't ask me to stay


C       (Em)         F          G
  Follow me and everything is alright
C            (Em)             F     G
  I'll be the one to tuck you in at night
           C        (Em)         F     G
And if you   want to leave I can guarantee
          C RIFF      F    G    C
You won't find nobody else like me


    C                             F
You don't know how you met me you don't know why
    C                     F   G    C
You can't turn around and say good bye
        C                           F
All you know is when I'm with you I make you free
    C RIFF                          F    G      C
And swim through your veines like a fish in the sea
            C       (Em)         F          G
I'm singing   follow me and everything is alright
C            (Em)             F     G
  I'll be the one to tuck you in at night
           C        (Em)         F     G
And if you   want to leave I can guarantee
          C RIFF      F    G    C
You won't find nobody else like me




Solo: (altered for acoustic play; 2nd part is added by myself)
       C                F      G         C           
     F  G    C
E--------3---------------------------------3------------------------------|
B----3/5---5p3--1-------1-1---/3-------3/5---5p3--1-------1--1---/3-------|
G------------------2-0-------------------------------2-0------------------|
D-------------------------------------------------------------------------|
A-------------------------------------------------------------------------|
E-------------------------------------------------------------------------|

      C                    F    G       C            
           F  G  C
E-------3-5-3-------------------------------3------3--5-3-------------3----|
B---3/5-------5-3-1-----x--1----3-------3h5----3h5--------5-3---1--3--1----|
G-------------------2------2----0-------5------5----------------2--0--0----|
D--------------------------------------------------------------------------|
A--------------------------------------------------------------------------|
E--------------------------------------------------------------------------|



Riff for C (organ, also last part in the solo)
E---------------------------------------0------------|
B-------------------------------1--3----1------------|
G-------0-------0----2-0--------2--0----0------------|
D---0h2-----0h2----------2-0----3--0----2------------|
A---3-------3-------------------3--2----3------------|
E----------------------------------3-----------------|


And that’s it! Please rate, comment and correct me!
Cheers...
            
Submit corrections

comments powered by Disqus
↑ Back to top | Uncle Kracker Chords for Follow Me. Lyrics for acoustic guitar and electric guitar. Tablatures and chords are parodies/interpretations of the original songs. You may use it for private study, scholarship, research or language learning purposes only