» » »

Uncle Kracker, Follow Me Chords (ver.2)

Artists:  A B C D E F G H I J K L M N O P Q R S T U V W X Y Z # 

Follow Me Chords (ver.2)

Uncle Kracker Tabs
Rating:
2/5 (2 votes)
Follow Me lessons Tabs too difficult? Try these video lessons and learn fast
                intro:
e---------------------------------------|
B---------------------------------------|
G--12h14-12-10----10----------12—-12/14-|
D--------------12----12-10--------------|
A--------------------------12-----------|
E---------------------------------------|

e----------------------------------------|
B----------------------------------------|
G--12h14-12-10----10----10----10h12--10~-|
D--------------12----12----12------------|
A----------------------------------------|
E----------------------------------------|

(N.C.)
You don't know how you met me, you don't know why
You can't turn around and say goodbye
	F
All you know is when I'm with you
Bb
I make you free
F                                   Bb   C   F
And swim through your veins like a fish in the sea

Chorus: (N.C.)
            F          Bb		C
I'm singin Follow me, everything is alright
F                           Bb	C
I'll be the one to tuck you in at night, and if you
F               Bb	C
Want to leave, I can guarantee
           F            Bb   C   F
You won't find nobody, else like me

Vers:
F                    Bb
I'm not worried bout the ring you wear
F                           Bb      C		F
Cause as long as noone knows then nobody can care
                          Bb
You're feelin' guilty, and I'm well aware
F                                    Bb	   C    F
But you don't look ashamed, and baby, I'm not scared

Chorus:
solo:

e---------------------------------------|
B------13-------------------------------|
G--12b----14-12-10----------10--12------|
D------------------12-10-12-------------|
A---------------------------------------|
E---------------------------------------|
<------do this part 3 times-------------|

e---------------------------------------|
B---------------------------------------|
G12b-12b-12b-10-------12----10~~~~~~~~~-|
D---------------12-10-------------------|
A---------------------------------------|
E---------------------------------------|

Bridge:
G				C
Won't give you money, I can't give you the sky
F                           Bb
You're better off if you don't ask why
G
I'm not the reason that you, go astray
C
We'll be alright if you don't ask me to stay

CHORUS:

Verse:
F                               Bb
You don't know how you met me, you don't know why
F                         Bb   C   F
You can't turn around and say goodbye
F
All you know is when I'm with you
Bb
I make you free
      F                              Bb   C    F
And swim through your veins like a fish in the sea

Chorus:
  
I'm Singin'
     F -  Bb         C
     e||---------8------------------------------||
     b||---8s10-----10--8--6~-------------------||
     g||----------------------------------------|| (Repeat)
     D||----------------------------------------||
           thing is alright
           in at night

     F -  Bb         C                F -               Bb        F
     e|--------8----------------------------------------|
     b|--8s10-----10----8s10--8s10--8--6--6----8----6---|
     g|-------------------------------------------------|
     D|-------------------------------------------------|
              guarantee; You won't find   no  bo    dy

End    (After third part Chorus)

  F - Bb        F
      g|------0--------|
      D|----3----------|
      A|--3------------|
      E|---------1-----|
   ...else like me
            

comments powered by Disqus
↑ Back to top | Uncle Kracker Chords for Follow Me. Lyrics for acoustic guitar and electric guitar. Tablatures and chords are parodies/interpretations of the original songs. You may use it for private study, scholarship, research or language learning purposes only