» » »

Uncle Kracker, Follow Me Bass tabs (ver.1)

Artists:  A B C D E F G H I J K L M N O P Q R S T U V W X Y Z # 

Follow Me Bass tabs (ver.1)

Uncle Kracker Tabs
 Rating:
4/5 (5 votes)
Follow Me lessons Tabs too difficult? Try these video lessons and learn fast
1
                Tuning: Standard E A D G

I'm pretty sure this is correct. If you have any corrections do comment.
The rhythm is hard to pick up but just listen to it, it's not that hard.

I first tried to play this by tab but it was totally wrong and i altered
it completely, so there is no other credit to anyone else but who helped me at college,
thanks to them for the help.

There's no bass until 00:45. (Second Verse: I'm not worried about the ring you wear.... 
get me.)

Symbols (?)
\ - Slide Down
/ - Slide Up
~ - Let Ring


Verse: 00:45 x2
G:-------------------------------------------|
D:-------------------------------------------|
A:-------------------------------------------|
E:-1--1-1--1\5--5-5--5\7--7-7--7--7-7--6-8-1-|

Notes
E:-F--F-F--F\A--A-A--A\B--B-B--B--B-B--A#-C-F

Chorus 01:04 x7
G:------------------------------------------|
D:------------------------------------------|
A:------------------------------------------|
E:-1--1-1--1\5--5-5--5\7--6-8-1-------------|

Notes
E:-F--F-F--F\A--A-A--A\B--A#-C-F------------

Bridge (Won't give you money, can't give you the sky....) 01:41 x1
G:-------------------------------------------------------------------------|
D:-------------------------------------------------------------------------|
A:-------------------------------------------------------------------------|
E:-33333333-88888888-1111111111111111-3333333333333333-8888888888888888----|

Notes
E:-GGGGGGGG-CCCCCCCC-FFFFFFFFFFFFFFFF-GGGGGGGGGGGGGGGG-CCCCCCCCCCCCCCCC----

Chorus 01:58/59 x4
G:------------------------------------------|
D:------------------------------------------|
A:------------------------------------------|
E:-1--1-1--1\5--5-5--5\7--6-8-1-------------|

Notes
E:-F--F-F--F\A--A-A--A\B--A#-C-F------------

Verse 02:17 x2
G:------------------------------------------|
D:------------------------------------------|
A:------------------------------------------|
E:-1~-5~-7~~-6-8-1--------------------------|

Notes
E:-F~-A~-B~~-A#-C-F-------------------------

Chorus 02:35 x12
G:------------------------------------------|
D:------------------------------------------|
A:------------------------------------------|
E:-1--1-1--1\5--5-5--5\7--6-8-1-------------|

Notes
E:-F--F-F--F\A--A-A--A\B--A#-C-F------------

End.

Hope you enjoy it.
Amy x
            
Submit corrections

comments powered by Disqus
↑ Back to top | Uncle Kracker Bass for Follow Me. Lyrics for acoustic guitar and electric guitar. 1 Tablatures and chords are parodies/interpretations of the original songs. You may use it for private study, scholarship, research or language learning purposes only