>
 >
Riot 2

Riot 2 Guitar Tabs

Uk Subs - Riot 2 chords, tabs, tablatures, lyrics

Guitar lessons | Add/correct | Request | Top 50 tabs Artists:  A B C D E F G H I J K L M N O P Q R S T U V W X Y Z 0-9

Riot 2 Guitar Tabs – Uk Subs

CD, Sheet music, Poster

Do you like Riot 2? Share with your friends now
Bass TabsTabsTabs v2Tabs v3
Riot
UK Subs
Riot

7/10/10
Kyle Dixon

Intro *=8x
E|-------------------|
B|-*----*----*---*---|
G|-5----5----5---8-*-|
D|-5-6--5-6--5-6-8-8-|
A|-3-6--3-6--3-6-6-8-|
E|---4----4----4---6-|

Verse 1 x4 *=x8
E|---------|
B|-*---*---|
G|-5---8-*-|
D|-5-6-8-8-|
A|-3-6-6-8-|
E|---4---6-|

Chorus x2 *=x8
E|---------|
B|-*---*---|
G|-8-*-5-*-|
D|-8-8-5-6-|
A|-6-8-3-6-|
E|---6---4-|


Verse 2 x2 *=x8 
Guitar is tacet first half.
E|---------|
B|-*---*---|
G|-5---8-*-|
D|-5-6-8-8-|
A|-3-6-6-8-|
E|---4---6-|

Chorus x4 *=x8
E|---------|
B|-*---*---|
G|-8-*-5-*-|
D|-8-8-5-6-|
A|-6-8-3-6-|
E|---6---4-|

Bridge x4 *=x8
E|-----|
B|-*---|
G|-5-*-|
D|-5-6-|
A|-3-6-|
E|---4-|

Solo ^=full bend !=note held v=vibrato \=slide down /-slide up 
p=pinch harmonic >=prebend and release
Rhythm Guitar plays Chorus x4
E|-------------|--------------|----------------|------|
B|-6^--6-6-6^--|-!----6-8-6---|----------------|------|
G|-------------|------------5-|--5-8-5-8-5---5-|------|
D|-------------|--------------|------------8---|-8\-/-|
A|-------------|--------------|----------------|------|
E|-------------|--------------|----------------|------|

E|--------------------|---------------------|----------------------|------|
B|--------------------|---------------------|----------------------|------|
G|------8------8------|-8-------8------8----|---8------8------10^--|-!v---|
D|----8------8------8-|------8-------8------|-8------8------8------|------|
A|-10-----10-----10---|---10------10-----10-|-----10-----10--------|------|
E|--------------------|---------------------|----------------------|------|

E|-----------|----------------|-------------------|------|
B|------11p--|----------------|-------------------|------|
G|-10^--!----|-10---8------8--|------8--10^--10^--|-!v---|
D|-----------|---------10-----|-8-10--------------|------|
A|-----------|----------------|-------------------|------|
E|-----------|----------------|-------------------|------|

E|-11^---11---|-8---11-8----------------|--------------------|---------------|
B|------------|-----------11--8--11--8--|-11-8-8-11-8-8-11-8-|-8-11-8-8-11\--|
G|------------|-------------------------|--------------------|---------------|
D|------------|-------------------------|--------------------|---------------|
A|------------|-------------------------|--------------------|---------------|
E|------------|-------------------------|--------------------|---------------|

Verse 3 x4 *=x8
E|---------|
B|-*---*---|
G|-5---8-*-|
D|-5-6-8-8-|
A|-3-6-6-8-|
E|---4---6-|

Chorus x4 *=x8
On fourth time, Ab5 is struck once.
E|---------|
B|-*---*---|
G|-8-*-5-*-|
D|-8-8-5-6-|
A|-6-8-3-6-|
E|---6---4-|

Done.





Comments


Popular Uk Subs tabs & chords
Public Servant Bass Tabs
Rock N Roll Savage Chords
Death Row Tabs
Limo Life Tabs
Party In Paris 1 Tabs
Public Servant Tabs
Riot 1 Tabs
Shes Not There Tabs
Telephone Numbers Tabs
Warhead Tabs


Song lyrics



↑ Back to top | Tablatures and chords are parodies/interpretations of the original songs. You may use it for private study, scholarship, research or language learning purposes only
© 2014 AZChords.com Contact us | Privacy policy | DMCA | Add/correct tabs | Request tabs | Top 50 tabs