» » »

Riot Tabs (ver.2)

Artists:  A B C D E F G H I J K L M N O P Q R S T U V W X Y Z # 

Riot Tabs (ver.2)

Uk Subs
Rating:
5/5 (1 vote)

Hard to play? Try these video lessons and learn fast.
                ----------------------------------------------------------------------------
                           RIOT- UK SUBS
----------------------------------------------------------------------------


Tuning: Standard 

Intro:

e|-----------------------------|
B|-----------------------------|
G|-----------------------------|
D|-7-7-7-7---3-----------------|   (X2)
A|-7-7-7-7---3-----------------|
E|-5-5-5-5---1-----------------|

e|------------------------------------------|
B|------------------------------------------|
G|------------------------------------------|
D|-7-7-7-7---3-3-3-3---10-10-10-10---5-5-5-5| 
A|-7-7-7-7---3-3-3-3-- 10-10-10-10---5-5-5-5|
E|-5-5-5-5---1-1-1-1----8--8--8--8---3-3-3-3|
            
Hard to play? Try these video lessons and learn fast. | Correct




comments powered by Disqus
↑ Back to top | Tablatures and chords are parodies/interpretations of the original songs. You may use it for private study, scholarship, research or language learning purposes only