» » »

Uk Subs, Riot Tabs (ver.1)

Artists:  A B C D E F G H I J K L M N O P Q R S T U V W X Y Z # 

Riot Tabs (ver.1)

Uk Subs Tabs
 Rating:
4/5 (4 votes)
Riot lessons Tabs too difficult? Try these video lessons and learn fast
1
                                           Guitar tab

UK SUBS :  Riot     


 Intro
e|-------------------------------------|
B|-------------------------------------|
G|-5-5-5-5-5-5-5-----5-5-5-5-5-5-5-----|
D|-5-5-5-5-5-5-5-6---5-5-5-5-5-5-5-6---|
A|-3-3-3-3-3-3-3-6---3-3-3-3-3-3-3-6---|
E|---------------4-----------------4---|

Verse 
e|--------------------------------------------------------------------|
B|--------------------------------------------------------------------|
G|-5--5-5-5-5-5--------------8--8-8-8-8-8-----------------------------|
D|-5--5-5-5-5-5-6--6-6-6-6-6-8--8-8-8-8-8-8--8-8-8-8-8-8--------------|
A|-3--3-3-3-3-3-6--6-6-6-6-6-6--6-6-6-6-6-8--8-8-8-8-8-8--------------|
E|--------------4--4-4-4-4-4--------------6--6-6-6-6-6-6--------------|

Chorus 
e|-------------------------------------------------|
B|-------------------------------------------------|
G|-8--8-8-8-8-8--------------5--5-5-5-5-5----------|
D|-8--8-8-8-8-8-8--8-8-8-8-8-5--5-5-5-5-5-6--6--6--|
A|-6--6-6-6-6-6-8--8-8-8-8-8-3--3-3-3-3-3-6--6--6--|
E|--------------6--6-6-6-6-6--------------4--4--4--|

Bridge 
e|---------------------------------|
B|---------------------------------|
G|-5-5-5-5-5-5-5-------------------|
D|-5-5-5-5-5-5-5-6--6-6-6-6-6-6-6--|
A|-3-3-3-3-3-3-3-6--6-6-6-6-6-6-6--|
E|---------------4--4-4-4-4-4-4-4--|


Lyrics

Inner city life is getting me down,Police and gang wars all over town
Curfew on our clubs for no good reason
Hassle on the streets take away our freedom

Oh oh we want a riot, Oh oh so sick and tired

Here come the riot squad they're closing in, Guns and riot shields and gas grenades
They see us standing there all in a line, Black and white unite confrontation time

Oh oh we want a riot Oh oh we're sick and tired
Oh oh we want a riot Oh oh leave us alone

We have a justice bill that's what they say, Now they have the power to put us away
There were four of us minding our own, A riotous assembly walking down the road

Oh oh we want a riot Oh oh so sick and tired
Oh oh we want a riot Oh oh leave us alone
            
Submit corrections

comments powered by Disqus
↑ Back to top | Uk Subs Tabs for Riot. Lyrics for acoustic guitar and electric guitar. 1 Tablatures and chords are parodies/interpretations of the original songs. You may use it for private study, scholarship, research or language learning purposes only