» » »

Ub40, Red Red Wine Bass tabs (ver.2)

Artists:  A B C D E F G H I J K L M N O P Q R S T U V W X Y Z # 

Red Red Wine Bass tabs (ver.2)

Ub40 Tabs
Rating:
5/5 (1 vote)
Red Red Wine lessons Tabs too difficult? Try these video lessons and learn fast
                 Title - Red Red Wine
 Artist - UB40
 Album - Labour of Love
  
             
 chorus   
G|----6--6-------------8---8----------|
D|------------4---4-------------6---6-|
A|-4---4------------6----6------------|
E|---------2----2------------4----4---|

G|----6--6-------------8---8---------|
D|------------4---4-------------64---|
A|-4---4------------6----6---------6-|
E|---------2----2------------4-------|

G|----6--6-------------8---8----------|
D|------------4---4-------------6---6-|
A|-4---4------------6----6------------|
E|---------2----2------------4----4---|

G|---------------------------------|
D|----6--6----64------42-4----64---|
A|---------------6---------------6-|
E|-4---4---4-------2-------4-------|

G|----6--6-------------8---8----------|
D|------------4---4-------------6---6-|
A|-4---4------------6----6------------|
E|---------2----2------------4----4---|

G|----6--6-------------8---8---------|
D|------------4---4-------------64---|
A|-4---4------------6----6---------6-|
E|---------2----2------------4-------|

G|----6--6-------------8---8----------|
D|------------4---4-------------6---6-|
A|-4---4------------6----6------------|
E|---------2----2------------4----4---|

G|---------------------------------|
D|----6--6----64------42-4----64---|
A|---------------6---------------6-|
E|-4---4---4-------2-------4-------|

 bridge
G|----6--6-------------8---8----------|
D|------------4---4-------------6---6-|
A|-4---4------------6----6------------|
E|---------2----2------------4----4---|


 verse
G|---------------------64------6---6-|
D|----64------6--6--------6----------|
A|-------6----------4-------4----4---|
E|-4-------4---4---------------------|

G|-------------------6--6----64---|
D|----4--4----4--4--------------6-|
A|-----------------4--4---4-------|
E|-2---2---2---2------------------|

G|--------------------6--66---6--6------------------------------|
D|----6--6----6--6--------------------4--4----4--4-66664--------|
A|-----------------4---4---44--4-------------------------6---/\-|
E|-4---6---4---4-------------------2---2---2---2-----------4----|

 /\ = slide up & down

 repeat chorus X 2 (second time over keyboard part)

 repeat verse

 repeat chorus
            

comments powered by Disqus
↑ Back to top | Ub40 Bass for Red Red Wine. Lyrics for acoustic guitar and electric guitar. Tablatures and chords are parodies/interpretations of the original songs. You may use it for private study, scholarship, research or language learning purposes only