» » »

Rat In Mi Kitchen Bass tabs (ver.1)

Artists:  A B C D E F G H I J K L M N O P Q R S T U V W X Y Z # 

Rat In Mi Kitchen Bass tabs (ver.1)

Ub40
Rating:
5/5 (2 votes)

Hard to play? Try these video lessons and learn fast.
                    Title - Rat in mi Kitchen
    Artist - UB40
    Album - Rat in the Kitchen

    intro 
  G|------------------------------------------|
  D|------------------------------------------|
  A|-------------------------------7--7-7--7--|
  E|--7----5----0--5(0)-----7----5-----7--7---|

    intro ctd.
  G|--------------------------------------------|
  D|--------------------------------------------|
  A|-------------------------------7---7777-----|
  E|--7----5---(0)----------7----5---0------00--|

     riff 1
  G|-------------------------------------|
  D|-------------------------------------|
  A|--------------5----------------------|
  E|--7--5-7--5-7---7---5-7777-0-0--0-5--|

     riff 2
  G|---------------------------------------|
  D|---------------------------------------|
  A|--------------5-----------------5-5-4--|
  E|--7--5-7--5-7---7---5-7777--5-7--------|
     repeat riff 1;

     riff 3
  G|------------------------------------|
  D|------------------------------------|
  A|--------------5------------7-7-5-4--|
  E|--7--5-7--5-7---7---5-7777----------|
     repeat riff 1;

     riff 4
  G|---------------------------------------|
  D|---------------------------------------|
  A|--------------5---------------7-7-5-4--|
  E|--7--5-7--5-7---7---5-7777--5----------|
     repeat riff 1+2;

     riff 5
  G|-------------------------------------|
  D|-------------------------------------|
  A|--------------5---7777-5-5-4-4-------|
  E|--7--5-7--5-7---7---------------0-5--|
     repeat riff 1,5 etc...
            
Hard to play? Try these video lessons and learn fast. | Correct




comments powered by Disqus
↑ Back to top | Tablatures and chords are parodies/interpretations of the original songs. You may use it for private study, scholarship, research or language learning purposes only