» » »

Kingston Town Bass tabs (ver.1)

Artists:  A B C D E F G H I J K L M N O P Q R S T U V W X Y Z # 

Kingston Town Bass tabs (ver.1)

Ub40
Rating:
5/5 (2 votes)

Hard to play? Try these video lessons and learn fast.
                artist-ub40
song-kingston town


intro x2
G -----------------------------------------------------------|
D ------------------------------------66666------------------|
A --------66666---3---3-------3-4---4-------4-6---6-------6--|
E --4---4-------4-------33333-----------------------66666----|
    G#            C             C#            D#

verse 1
G -----------------------------------------------------------|
D -----------------------------------------------------------|
A --------66666---3---3-------3-4---4-------4-6---6-------6--|
E --4---4-------4-------33333---------44444---------66666----|

G -------------------------------|
D ----------------------88888----|
A --------66666---6---6-------6--|
E --4---4-------4----------------|


verse 2
G -----------------------------------------------------------|
D --------------------------------------------------88888----|
A --------66666---3---3-------3-4---4-------4-6---6-------6--|
E --4---4-------4-------33333---------44444------------------|

G -----------------------------------------------------------|
D ----------------------88888--------------------------------|
A --4---4-------4-6---6-------6-------66666---------66666----|
E --------44444-----------------4---4-------4-4---4-------4--|


chorus(key change)
G -----------------------------------------------------------|
D --------55555-------------------------------------55555----|
A --3---3-------3-------33333---------55555---3---3-------3--|
E ----------------1---1-------1-3---3-------3----------------|
    C#            F             G             C
G ------------------------------------------|
D ------------------------------------------|
A ---1slide3---1slide3---1slide3---1slide3--|
E -1---------1---------1---------1----------|
1h3 also sounds ok on the A string here

G -------------------------------------------------------------|
D --------33333---------33333----------88888--8--68-6----------|
A --1---1-------1-1---1-------1--6---6-------6--------868-6----|
E ----------------------------------------------------------8--|
    A#                               D#
return to verse 2


break
G -----------------------------------------------------------|
D -----------------------------------------------------------|
A --------66666---3---3-------3-4---4-------4-6---6-------6--|
E --4---4-------4-------33333---------44444---------66666----|

G -------------------------------------------------------------|
D ------------------------------------66666------6h86---6h8----|
A --------66666---3---3-------3-4---4-------4--6------6-----6--|
E --4---4-------4-------33333----------------------------------|
h=hammer on

return to chorus

outro                                                  (tens)
G------------------------------------------------------------------|
D --------66666-------------------------------------1010101010-----|
A --4---4-------4-6---6-------6-------66666---8---8------------8---|
E ----------------------66666---4---4-------4----------------------|

G--------------------------------------------------------------------|
D --------66666-----------------------------------8h108h10-----10----|
A --4---4-------4-6---6-------6-------66666---8--8--------8--8----8--|
E ----------------------66666---4---4-------4------------------------|....
            
Hard to play? Try these video lessons and learn fast. | Correct




comments powered by Disqus
↑ Back to top | Tablatures and chords are parodies/interpretations of the original songs. You may use it for private study, scholarship, research or language learning purposes only