» » »

Adella Bass tabs (ver.2)

Artists:  A B C D E F G H I J K L M N O P Q R S T U V W X Y Z # 

Adella Bass tabs (ver.2)

Ub40
Rating:
5/5 (1 vote)
Tabs too difficult? Try these video lessons and learn fast.
                    Title - Adella (instrumental)
    Artist - UB40
    Album - Signing Off

      riff 1/intro
  G|-----------------------------------------------|
  D|-----------------------------------------------|
  A|-------10-10-10-10-10------------10-10---------|
  E|--8-8------------------10-10-10---------10-10--|

  G|-----------------------------------------------|
  D|-----------------------------------------------|
  A|---------10-10-10-10-------------10-10---------|
  E|--8-8-8----------------10-10--10--------10-10--|


  G|------------------------------------------------|
  D|------------------------------------------------|
  A|-------10-10-10-10-10-------------10-10---------|
  E|--8-8------------------10-10--10---------10-10--|

  G|----------------------------------|
  D|----------------------------------|
  A|---------10-10--10---------0------|
  E|--8-8-8-------------10--10----10--|

      riff 2
  G|----------------------------------------|
  D|----------------------------------------|
  A|-----10-10-10--10--------------0--------|
  E|--8---------------10-12-10-8-----10-10--|

  G|-----------------------------------------|
  D|-----------------------------------------|
  A|-----------10-10--10--------------0------|
  E|--8-8-8-8-------------10-12-10-8----X\8--|

  G|-----------------------------------------|
  D|-----------------------------------------|
  A|-----------10-10--10-----------0---------|
  E|--8-8-8-8-------------10-12-8----10-10---|

  G|--------------------------------------------|
  D|--------------------------------------------|
  A|---------10-10-10-10------------10------10--|
  E|--8-8-8---------------10-10-10------10------|
      repeat riff 1,2

       riff 3/chorus
  G|----------------------------------------------|
  D|----------------------------------------------|
  A|--------12-12-------14-14--------15-15----15--|
  E|--10-10-------12-12--------13-13-------13-----|

  G|----------------------------------------------|
  D|----------------------------------------------|
  A|--------12-12-------14-14--------15-15----15--|
  E|-\10-10-------12-12--------13-13-------13-----|

  G|---------------------------------------------|
  D|---------------------------------------------|
  A|--------12-12-------14-14-15-14--------------|
  E|-\10-10-------12-12-------------17-15-13-10--|
          return to start and repeat

       outro
  G|-------------------------------------------------------|
  D|-------------------------------------------------------|
  A|--------12-12-------14-14-15-14------------------------|
  E|-\10-10-------12-12-------------17-15--13----10-----8--|
            
Tabs too difficult? Try these video lessons and learn fast.


comments powered by Disqus
↑ Back to top | Tablatures and chords are parodies/interpretations of the original songs. You may use it for private study, scholarship, research or language learning purposes only