» » »

Rasputin Tabs (ver.2)

Artists:  A B C D E F G H I J K L M N O P Q R S T U V W X Y Z # 

Rasputin Tabs (ver.2)

Turisas
Rating:
4/5 (1 vote)

Hard to play? Try these video lessons and learn fast.
                (Intro)
Those other tabs are a bit wrong. The intro is played an octave higher.

e------------------------------------------------------|
B------------------------------------------------------|
G------------------------------------------------------|
D-----7-9-9-10h9h7-9h7-9----7-9-9-9-10h9h7-9h7-9-------|
A---9----------------------9---------------------------|
E------------------------------------------------------|

yeh, thats about it. the timing is tricky. Just have to listen to the song a bit to get 
rhythem.

Whats also fun is that you could play the 2nd main riff also an octave higher.

e-----------14-14-12h14h15-15/17~-15-14-14--------------------|
B-15h14-12~--------------------------------14-15-17~-17~-17~--|
G-------------------------------------------------------------|
D-------------------------------------------------------------|
A-------------------------------------------------------------|
E-------------------------------------------------------------|
-
e------------------------|
B-14-15-17-17-15-14-12~--|
G------------------------|
D------------------------|
A------------------------|
E------------------------|

and thats it. pretty fun. the rest you can get from the other tabs.
            
Hard to play? Try these video lessons and learn fast. | Correct




comments powered by Disqus
↑ Back to top | Tablatures and chords are parodies/interpretations of the original songs. You may use it for private study, scholarship, research or language learning purposes only