» » »

Turisas, Rasputin Tabs (ver.1)

Artists:  A B C D E F G H I J K L M N O P Q R S T U V W X Y Z # 

Rasputin Tabs (ver.1)

Turisas Tabs
 Rating:
3.4/5 (11 votes)
Rasputin lessons Tabs too difficult? Try these video lessons and learn fast
                



e|-------------------------------------------------------------------------|
B|-------------------------------------------------------------------------|
G|-------------------------------------------------------------------------|
D|-------------------------------------------------------------------------|
A|--0-2--2--0-2-3-2-0-2----0-2-2--2---0-2-3-2-0-2--------------------------|
E|-2---------------------2-------------------------------------------------|


e|-------2--2--0h2h3-3-5-3-2-2---------------------------------------------|
B|-3-2-0---------------------2-3-5--5--5--2-3-5--5-3-2-0-------------------|
G|-------------------------------------------------------------------------|
D|-------------------------------------------------------------------------|
A|-------------------------------------------------------------------------|
E|-------------------------------------------------------------------------|


e|-------------------------------------------------------------------------|
B|------------------12h10p12-10-12------------------------------10h12------|
G|---------------------------------11---9-11-----------------11------11-9-9|
D|-------------------------------------------------------------------------|
A|------------7h8h9------------------------------------7h8h9---------------|
E|-7--7--7h10---------------------------------7-7-7h10---------------------|


e|-------------7-----7h10p7----7-------------------------------------------|
B|-----7--7h10--------------10---------------------------------------------|
G|-7h9---------------------------------------------------------------------|
D|-------------------------------------------------------------------------|
A|-------------------------------------------------------------------------|
E|-------------------------------------------------------------------------|


e|-7-----------------------------------------------------------------------|
B|---7h8h10-8p7------------------------------------------------------------|
G|-------------9-----------------------------------------------------------|
D|-------------------------------------------------------------------------|
A|-------------------------------------------------------------------------|
E|-------------------------------------------------------------------------|


e|--7--------7---------7---------7--7--------------------------------------|
B|------10-----10-7-10---10-7-10-------------------------------------------|
G|-------------------------------------------------------------------------|
D|-------------------------------------------------------------------------|
A|-------------------------------------------------------------------------|
E|-------------------------------------------------------------------------|
            
Submit corrections

comments powered by Disqus
↑ Back to top | Turisas Tabs for Rasputin. Lyrics for acoustic guitar and electric guitar. Tablatures and chords are parodies/interpretations of the original songs. You may use it for private study, scholarship, research or language learning purposes only