» » »

Turisas, Rasputin Tabs (ver.3)

Artists:  A B C D E F G H I J K L M N O P Q R S T U V W X Y Z # 

Rasputin Tabs (ver.3)

Turisas Tabs
Rating:
0/5 (0 votes)
Hard to play? Try these video lessons and learn fast.
                -----------------------------------------------------------------------------
                          Rasputin- by Turisas
-----------------------------------------------------------------------------
    i searched for the tabs but couldn't find any good ones so i just tabbed
    it by myself by hearing and the result is 99% accurate, if you have there
    any mistakes please let me know and ill fix them hope you will enjoy
    playing this song as much as i do rate and comment :D!




Tuning: Standard

PM.= Palm mute it with your picking hand.

Intro:

e|--------------------------------|-----------------------------------|
b|------4--4--4---6-4-2-4---------|--------4--4--4---4-6-4-2-4--------|
g|4--7----------------------------|4--7-------------------------------|
D|--------------------------------|-----------------------------------| X6
A|--------------------------------|-----------------------------------|
E|--------------------------------|-----------------------------------|

Second Part Intro:

e|-------------------------------------------------------------------|
b|-------------------------------------------------------------------|
g|----------------2--------------------------------------------------|
D|---4-4----4-5--------5--4-4---------2-2-2-----2-2-2----------------|  X2
A|2------------------------------4-5--------4-5-------5-4------------|
E|-------------------------------------------------------------------|

Hey Hey Hey Part\Third part of Intro: (You will need to figure out the rythem by hearing 
the song a couple of times)

PM....................................................................
e|--------------------------------------------------------------------|
b|--------------------------------------------------------------------|
g|4-4-4-4-4-4-4-4-----------------------------------4-4-4-4-4-4-4-4-4-|
D|4-4-4-4-4-4-4-4---2-2-2-2-2-2-2-2---4-4-4-4-4-4---4-4-4-4-4-4-4-4-4-| X2
A|2-2-2-2-2-2-2-2---2-2-2-2-2-2-2-2---4-4-4-4-4-4---2-2-2-2-2-2-2-2-2-|
E|------------------------------------2-2-2-2-2-2---------------------|

Power Chords after the Hey hey hey part before the Chorus:

e|--------------------------------------------------------------------|
b|--------------------------------------------------------------------|
g|4-------2---------------------4-------2-----------------------------|
D|4-------2------5------4-------4-------2------5-------4--------------|
A|2--------------5------4-------2--------------5-------4--------------|
E|---------------3------2----------------------3-------2--------------|

Last part of Intro:

PM..........................................|XXXXXX|PM|XXXXXXXXXXXXXXX
e|--------------------------------------------------------------------|
b|--------------------------------------------------------------------|
g|4-4-4-4-4-4-4-4-4-4-4-4-4-4-4-4-4-4-4-4-4-4-------------------------|
D|4-4-4-4-4-4-4-4-4-4-4-4-4-4-4-4-4-4-4-4-4-4----4--2--4--------------|
A|2-2-2-2-2-2-2-2-2-2-2-2-2-2-2-2-2-2-2-2-2-2----4--2--4--------------|
E|-----------------------------------------------2-----2--------------|

Verse 1: (once again you need to get the rythem by yourselves)


PM....................................................................
e|--------------------------------------------------------------------|
b|--------------------------------------------------------------------|
g|--4---4---4---4---4---------------------------------4---4-----------|
D|--4---4---4---4---4-----2---2---2---2-----4---4-----4---4-----------|
A|2-2-2-2-2-2-2-2-2-2-----2---2---2---2-----4---4---2-2-2-2-----------|
E|----------------------0-0-0-0-0-0-0-0---2-2-2-2---------------------|

Pre Chorus:(only some parts have mutes)


                                  |PM.......................|
e|--------------------------------------------------------------------|
b|--------------------------------------------------------------------|
g|4~------------------------------------------------------------------|
D|4~--------------------2~---------4-4-4-4-4-4-4-4-4-4-4-4-4----------|
A|2~--------------------2~---------4-4-4-4-4-4-4-4-4-4-4-4-4----------|
E|----------------------0~---------2-2-2-2-2-2-2-2-2-2-2-2-2----------|

                                  |PM.......................|
e|--------------------------------------------------------------------|
b|--------------------------------------------------------------------|
g|4~-------------------------------4-4-4-4-4-4-4-4-4-4-4-4-4----------|
D|4~--------------------2~---------4-4-4-4-4-4-4-4-4-4-4-4-4----------|
A|2~--------------------2~---------2-2-2-2-2-2-2-2-2-2-2-2-2----------|
E|----------------------0~--------------------------------------------|

Chorus: (difficult to get the ryhtem here


         |PM....|
e|--------------------------------------------------------------------|
b|--------------------------------------------------------------------|
g|4---4---0--0--0---------4-4-4------4-----------4------4~------------|
D|4---4---0--0--0---2--2--4-4-4------4----2------4--2---4~------------|  X2
A|2---2---0--0--0---2--2--2-2-2------2----2------2--0---2~------------|
E|------------------0--0------------------0---------------------------|

At the end of the 2 times you play it play:


e|------|
b|------|
g|4-4---|
D|4-4---|
A|2-4---|
E|------|


Will be Continued soon In the meanwhile tell me what you think :D!
            

comments powered by Disqus
↑ Back to top | Turisas Tabs for Rasputin. Lyrics for acoustic guitar and electric guitar. Tablatures and chords are parodies/interpretations of the original songs. You may use it for private study, scholarship, research or language learning purposes only