» » »

Trust Company, Fear Tabs (ver.2)

Artists:  A B C D E F G H I J K L M N O P Q R S T U V W X Y Z # 

Fear Tabs (ver.2)

Trust Company Tabs
 Rating:
4/5 (4 votes)
Fear lessons Tabs too difficult? Try these video lessons and learn fast
1
                "(1)
verse:
e--------0-0h1h0------------0-0h1h0------------1-------------
B----1-------------1----1-------------1----1-----------------
G------2---------2--------2---------2--------2---------------
D--3------------------3------------------3-------------------
A------------------------------------------------------------
E------------------------------------------------------------

e--------1-----------0-----------0-0h1h0---------------1-----
B----1-----------1-----------1-------------1-------1---------
G------2-----------2-----------2---------2-----------2-------
D--3-----------2-----------0---------------------------------
A------------------------------------------------1-----------
E------------------------------------------------------------

e--------0-0h1h0------------0---------0-0h1h0------------1---
B----1-------------1----1---------1-------------1----1-------
G------2---------2--------2---------2---------2--------2-----
D--3------------------2---------0----------------------------
A--------------------------------------------------1---------
E------------------------------------------------------------

chorus
e----------------------------------------
B----------------------------------------
G----------------7-----------5-----------
D---5------------7--(x16)----5--(x32)----
A---5--(x16)-----5-----------3-----------
E---3------------------------------------

bridge:
e------------------------------------------------
B------------------------------------------------
G---------------------------7-----------5--------
D---3-----------5-----------7--(x16)----5--(x16)-
A---3--(x16)----5--(x16)----5-----------3--------
E---1-----------3--------------------------------

solo:
e--8-------8---------------8--8-------8---------------8-6-5--
B----10-11---10----8-10-11------10-11---10----8-10-11--------
G---------------10-------------------------10----------------
D------------------------------------------------------------
A------------------------------------------------------------
E------------------------------------------------------------

outro:
e--------0----------0----------0-----------1---
B----1----------1----------1----------1----1---
G------2----------2----------2----------2--2---
D--3----------3----------3----------3------3---
A----------------------------------------------
E----------------------------------------------
"            
Submit corrections

comments powered by Disqus
↑ Back to top | Trust Company Tabs for Fear. Lyrics for acoustic guitar and electric guitar. 1 Tablatures and chords are parodies/interpretations of the original songs. You may use it for private study, scholarship, research or language learning purposes only