» » »

Trust Company, Fear Tabs (ver.3)

Artists:  A B C D E F G H I J K L M N O P Q R S T U V W X Y Z # 

Fear Tabs (ver.3)

Trust Company Tabs
 Rating:
4/5 (4 votes)
Fear lessons Tabs too difficult? Try these video lessons and learn fast
                "(2)
6 string standard tuning E-A-D-G-B-e
Intro
e---------------------
B---------------------
G-----8-8h9p8--------9
D--9--------------9---
A-7-7------------7-7--
E------------X2-
Verse Variation 1
e------------
B------------
G-----8-8H9P8
D--9---------
A-7-7--------
E------------
OR vARIATION 2
e------------
B------------
G----8-------
D--9---------
A-7-7--------
OR vARIATION 3
e------------
B------------
G----9-------
D--9---------
A-7-7--------
E------------
cHORUS
e------------
B------------
G-9----------
D-9-9-7-4----
A-7-9-7-4----
E---7-5-2----
sOLOIE BRIDGE THINGY
e---------------------
B-8H9-9-9--7H9-9-9-9-7
G---------------------
D---------------------
A---------------------
E---------------------
oUTRO SOLOIE THINGY
e------------------------------------------------------------
B-9-9-9-9-9-9-7---7-7-7-7-7-7-5--5-5-5-5-5-5-7--7-7-7-7-7-7-5
G------------------------------------------------------------
D------------------------------------------------------------
A------------------------------------------------------------
E------------------------------------------------------------
THIS SONG REMIINDS ME OF NASTY MONKEYS
"            
Submit corrections

comments powered by Disqus
↑ Back to top | Trust Company Tabs for Fear. Lyrics for acoustic guitar and electric guitar. Tablatures and chords are parodies/interpretations of the original songs. You may use it for private study, scholarship, research or language learning purposes only