» » »

Trust Company, Fear Tabs (ver.1)

Artists:  A B C D E F G H I J K L M N O P Q R S T U V W X Y Z # 

Fear Tabs (ver.1)

Trust Company Tabs
Rating:
0/5 (0 votes)
Fear lessons Tabs too difficult? Try these video lessons and learn fast
                Intro
e---------------------------
B---------------------------
G--------8-8h9h8-8----------      2x(with slight Reverb)
D--9--9---------------9-----
A-7-7---------------7-7-----
E---------------------------

Verse
e---------------------------
B---------------------------
G--------8-8h9h8-8----------      About 6x
D--9--9---------------9-----       
A-7-7---------------7-7-----
E---------------------------

Chorus(Guitar 1)
e-------------
B-------------
G-7-----------  2x: Estimate how many times you hit each chord 
D-7--7--5--7--      
A-5--7--5--7--
E----5--3--5--

Chorus(Guitar 2)
e----------------------------------------------------
B-9-9-9-9-9-9-9-7-7-7-7-7-7-5-5-5-5-5-7-7-7-7-7-9-9-9
G----------------------------------------------------
D----------------------------------------------------
A----------------------------------------------------
E----------------------------------------------------

Bridge(Guitar 1)
e-------------
B-------------
G-7-----------  
D-7--7--5--7--      
A-5--7--5--7--
E----5--3--5--

Bridge(Guitar 2)
e---------------------------
B-8H9-9-9--7H9-9-9-9-7-7----
G---------------------------
D---------------------------
A---------------------------
E---------------------------

After Bridge repeat Chorus

Outro(Guitar 1)
e-------------
B-------------
G-7-----------  
D-7--7--5--7--      
A-5--7--5--7--
E----5--3--5--

Outro(Guitar 2)
e----------------------------------------------------
B-9-9-9-9-9-9-9-7-7-7-7-7-7-5-5-5-5-5-7-7-7-7-7-9-9-9
G----------------------------------------------------
D----------------------------------------------------
A----------------------------------------------------
E----------------------------------------------------

Breakdown:
Intro 
Verse 
Chorus 
Verse 
Chorus 
Bridge
Chorus
Outro

Please excuse any mistakes, this is my first TAB. I tabbed the whole thing myself!
            

comments powered by Disqus
↑ Back to top | Trust Company Tabs for Fear. Lyrics for acoustic guitar and electric guitar. Tablatures and chords are parodies/interpretations of the original songs. You may use it for private study, scholarship, research or language learning purposes only