» » »

Drop To Zero Tabs (ver.2)

Artists:  A B C D E F G H I J K L M N O P Q R S T U V W X Y Z # 

Drop To Zero Tabs (ver.2)

Trust Company
Rating:
0/5 (0 votes)

Tabs too difficult? Try these video lessons and learn fast.
                                              Trust Company - Drop To Zero
Db, Ab, Db, Gb, Bb, Eb (or C#, G#, C#, F#, A#, D#)

Intro
---8-0-0-----8-0-0-----8-0-0-----8-0-0----------------------------
---8-0-0-----8-0-0-----8-0-0-----8-0-0----------------------------
---8-0-0-----8-0-0-----8-0-0-----8-0-0----------------------------

Verse

Chorus
---3-3-3-3-3-3-3-3-5--7-7-7-7-7-7-7-------------------------------
---3-3-3-3-3-3-3-3-5--7-7-7-7-7-7-7-------------------------------
---3-3-3-3-3-3-3-3h5--7-7-7-7-7-7-7-------------------------------

Verse

Chorus

Bridge
---8-0-0-----8-0-0-----8-0-0-----8-0-0----------------------------
---8-0-0-----8-0-0-----8-0-0-----8-0-0----------------------------
---8-0-0-----8-0-0-----8-0-0-----8-0-0----------------------------

Chorus
            
Tabs too difficult? Try these video lessons and learn fast.




comments powered by Disqus
↑ Back to top | Tablatures and chords are parodies/interpretations of the original songs. You may use it for private study, scholarship, research or language learning purposes only