» » »

Trust Company, Drop To Zero Tabs (ver.1)

Artists:  A B C D E F G H I J K L M N O P Q R S T U V W X Y Z # 

Drop To Zero Tabs (ver.1)

Trust Company Tabs
 Rating:
4/5 (4 votes)
Drop To Zero lessons Tabs too difficult? Try these video lessons and learn fast
1
                Intro (clean w/ Boss CE-5 Chorus Ensemble)
Eb|----------------------------------------------|
Bb|----------------------------------------------|
Gb|-----10-------9-------10-------9-------9h10---|
Db|--------10-10---10-10----10-10---10-10--------|
Ab|----------------------------------------------|
Db|-0-0------------------------------------------|

Intro (continued)
Eb|----------------------------------------------|
Bb|----------------------------------------------|
Gb|-----10-------9-------10-------9-------9h10---|
Db|--------10-10---10-10----10-10---10-10--------|
Ab|----------------------------------------------|
Db|---8------------------------------------------|

Riff 1 (clean)
Eb|-------------------------------|
Bb|-------------------------------|
Gb|-------------------------------|
Db|-------------------------------|
Ab|-------------------------------|
Db|---8-0-0-0-8-0-0-0-8-0-0-0-0---|

Riff 2 (heavy distortion) “DROP!!”      “T  o   Z  e  r  o  !!!!”
Eb|-------------------------------|    |-------------------------|
Bb|-------------------------------|    |-------------------------|
Gb|-------------------------------|    |-------------------------|
Db|---8-0-0-0-8-0-0-0-8-0-0-0-0---| x3 |-8/10-10-10-10-10-8--[3]-|
Ab|---8-0-0-0-8-0-0-0-8-0-0-0-0---|    |-8/10-10-10-10-10-8--[3]-|
Db|---8-0-0-0-8-0-0-0-8-0-0-0-0---|    |-8/10-10-10-10-10-8--[3]-|

Verse (clean w/ CE-5)
Eb|-------------------------------------|
Bb|-------------------------------------|
Gb|-------------------------------------|
Db|-------------------------------------|
Ab|---8-8-8-8-8-8-8-8-8/10-10-10-12~~---|
Db|---8-8-8-8-8-8-8-8-8/10-10-10-12~~---|

Chorus (heavy distortion)
Eb|---------------------------------------------------------------|
Bb|---------------------------------------------------------------|
Gb|---------------------------------------------------------------|
Db|---8-8-8-8-8-8-8-8-8/10~-12-12-12-12-12-12-12-12-12-12-12-12---|
Ab|---8-8-8-8-8-8-8-8-8/10~-12-12-12-12-12-12-12-12-12-12-12-12---|
Db|---8-8-8-8-8-8-8-8-8/10~-12-12-12-12-12-12-12-12-12-12-12-12---|

Play Verse

Play Chorus

Play Riff 1 

Play Riff 2 

End note of Riff 2
Eb|--------------------------|
Bb|--------------------------|
Gb|--------------------------|
Db|---8-8-8-8-8-8-8-8-8/10---|
Ab|---8-8-8-8-8-8-8-8-8/10---|
Db|---8-8-8-8-8-8-8-8-8/10---|

End note of Riff 2 (continued)
Eb|-----------------------------------------------------|
Bb|-----------------------------------------------------|
Gb|-----------------------------------------------------|
Db|---10-10-10-10-10-10-10-10-10-10-10-10-10-10-10-10---|
Ab|---10-10-10-10-10-10-10-10-10-10-10-10-10-10-10-10---|
Db|---10-10-10-10-10-10-10-10-10-10-10-10-10-10-10-10---|

End note of Riff 2 (continued)
Eb|-----------------------------------------------------|
Bb|-----------------------------------------------------|
Gb|---12-12-12-12-12-12-12-12-12-12-12-12-12-12-12-12---|
Db|----x--x--x--x--x--x--x--x--x--x--x--x--x--x--x--x---|
Ab|---10-10-10-10-10-10-10-10-10-10-10-10-10-10-10-10---|
Db|----x--x--x--x--x--x--x--x---------------------------|

Play Chorus

End song w/ (heavy distortion)
Eb|----------------------|
Bb|----------------------|
Gb|----------------------|
Db|----------------------|
Ab|----------------------|
Db|---0h8h10-12*~~~~~~---|
            
Submit corrections

comments powered by Disqus
↑ Back to top | Trust Company Tabs for Drop To Zero. Lyrics for acoustic guitar and electric guitar. 1 Tablatures and chords are parodies/interpretations of the original songs. You may use it for private study, scholarship, research or language learning purposes only