» » »

Drop To Zero Tabs (ver.3)

Artists:  A B C D E F G H I J K L M N O P Q R S T U V W X Y Z # 

Drop To Zero Tabs (ver.3)

Trust Company
Rating:
0/5 (0 votes)

Tabs too difficult? Try these video lessons and learn fast.
                The last version I sent in was wrong. Here's the right one.
Still need the intro, so pleez help me out on that! Thanx

Key: p: pull off   h: hammer-on  /: slide


End of Intro (clean)
Eb------------------------------------------
Bb------------------------------------------
Gb------------------------------------------
Db-8p0-0-0-8p0-0-0-8p0-00-8p0-0-0-8p0-0-0-8-
Ab-8p0-0-0-8p0-0-0-8p0-00-8p0-0-0-8p0-0-0-8-
Db-8p0-0-0-8p0-0-0-8p0-00-8p0-0-0-8p0-0-0-8-

Kick In 2x (Distortion)
Eb-------------------------------------------------------!
Bb-------------------------------------------------------!
Gb-------------------------------------------------------!
Db-8p0-0-0-8p0-0-0-8p0-00-8p0-0-0-8p0-0-0-8p0-0-0-8p0-0-0!
Ab-8p0-0-0-8p0-0-0-8p0-00-8p0-0-0-8p0-0-0-8p0-0-0-8p0-0-0!
Db-8p0-0-0-8p0-0-0-8p0-00-8p0-0-0-8p0-0-0-8p0-0-0-8p0-0-0!

Eb--------------
Bb--------------
Gb-5-5-5-5-5/--3
Db-5-5-5-5-5/--3
Ab-3-3-3-3-3p0-1
Db--------------

Verse 4x (clean)
Eb-------------------
Bb-------------------
Gb-3--3-3-3-3-3/5----
Db-1--1-1-1-1-1/3-0-0
Ab-1--1-1-1-1-1/3-0-0
Db----------------0-0

Chorus 4x (distortion)
Eb-------------------
Bb-------------------
Gb-3--3-3-3-3-3/5----
Db-1--1-1-1-1-1/3-0-0
Ab-1--1-1-1-1-1/3-0-0
Db----------------0-0
Verse 4x (clean)
Eb-------------------
Bb-------------------
Gb-3--3-3-3-3-3/5----
Db-1--1-1-1-1-1/3-0-0
Ab-1--1-1-1-1-1/3-0-0
Db----------------0-0

Chorus 4x (distortion)
Eb-------------------
Bb-------------------
Gb-3--3-3-3-3-3/5----
Db-1--1-1-1-1-1/3-0-0
Ab-1--1-1-1-1-1/3-0-0
Db----------------0-0

Interlude (clean)
Eb------------------------------------------
Bb------------------------------------------
Gb------------------------------------------
Db-8p0-0-0-8p0-0-0-8p0-00-8p0-0-0-8p0-0-0-8-
Ab-8p0-0-0-8p0-0-0-8p0-00-8p0-0-0-8p0-0-0-8-
Db-8p0-0-0-8p0-0-0-8p0-00-8p0-0-0-8p0-0-0-8-

Bridge (distortion) 2x
Eb-------------------------------------------------------!
Bb-------------------------------------------------------!
Gb-------------------------------------------------------!
Db-8p0-0-0-8p0-0-0-8p0-00-8p0-0-0-8p0-0-0-8p0-0-0-8p0-0-0!
Ab-8p0-0-0-8p0-0-0-8p0-00-8p0-0-0-8p0-0-0-8p0-0-0-8p0-0-0!
Db-8p0-0-0-8p0-0-0-8p0-00-8p0-0-0-8p0-0-0-8p0-0-0-8p0-0-0!
                 
Eb--------------!----------------------------------
Bb--------------!----------------------------------
Gb-5-5-5-5-5/--3!-5-5-5-5-5-5-5-5-3-3-3-3-3-3-3-3-3
Db-5-5-5-5-5/--3!-3-3-3-3-3-3-3-3-1-1-1-1-1-1-1-1-1
Ab-3-3-3-3-3p0-1!-3-3-3-3-3-3-3-3-1-1-1-1-1-1-1-1-1
Db--------------!----------------------------------
                 Play This at the end of the 2nd time around


Chorus 2x (distortion)
Eb-------------------
Bb-------------------
Gb-3--3-3-3-3-3/5----
Db-1--1-1-1-1-1/3-0-0
Ab-1--1-1-1-1-1/3-0-0
Db----------------0-0

Outro 4x (distortion)
Eb-------------------
Bb-------------------
Gb-3--3-3-3-3-3/5----
Db-1--1-1-1-1-1/3-0-0 Let Note Ring At Ending
Ab-1--1-1-1-1-1/3-0-0
Db----------------0-0

That's about it. There is some kinda fill in the background during the outro. If you think you have any idea what it is, please e-mail me. Hope it was helpful!
            
Tabs too difficult? Try these video lessons and learn fast.


comments powered by Disqus
↑ Back to top | Tablatures and chords are parodies/interpretations of the original songs. You may use it for private study, scholarship, research or language learning purposes only