>
 >
Stand Up 1

Stand Up 1 Guitar Tabs

Trapt - Stand Up 1 chords, tabs, tablatures, lyrics

Guitar lessons | Add/correct | Request | Top 50 tabs Artists:  A B C D E F G H I J K L M N O P Q R S T U V W X Y Z 0-9

Stand Up 1 Guitar Tabs – Trapt

CD, Sheet music, Poster

Do you like Stand Up 1? Share with your friends now
Bass TabsBass Tabs v2Bass Tabs v3Drum TabsTabsTabs v2Tabs v3Tabs v4
Band- Trapt
Song- Stand Up
Tuning- A E A D G B E

E|-----------------------------------|
B|-----------------------------------|
G|-----------------------------------|
D|-----------------------------------|
A|-----------------------------------|
E|-----------------------------------|
A|--x\\\\\\\\\\\\\\\\\\\\\\\\\\\\\\--|
  (pick scrape)

|-----------------------------------|
|-----------------------------------|
|-----------------------------------|
|-----------------------------------|
|----------------------3-3-3-3-3-3--|
|----------------------3-3-3-3-3-3--|
|--5-3-5-3-5-6-5-3-5-3-3-3-3-3-3-3--|
                       - - - - - -

|-----------------------------------|
|-----------------------------------|
|-----------------------------------|
|-----------------------------------|
|----------------------3-3-3-3------|
|----------------------3-3-3-3-3*---|
|--5-3-5-3-5-6-5-3-5-3-3-3-3-3------|
                       - - - -

|-----------------------------------|
|-----------------------------------|
|-----------------------------------|
|-----------------------------------|
|----------------------3-3-3-3-3-3--|
|----------------------3-3-3-3-3-3--|
|--5-3-5-3-5-6-5-3-5-3-3-3-3-3-3-3--|
                       - - - - - -

|-----------------------------------|
|-----------------------------------|
|-----------------------------------|
|-----------------------------------|
|------------------------3----------|
|------------------------3----------|
|--5-3-5-3-5-6-5-3-5-3---3--5-3-----|
                         -

|-----------------------------------|
|-----------------------------------|
|-----------------------------------|
|--------------------------7-7-7-7--|
|--5~-------------------------------|
|-----------------------------------|
|-----------------------------------|\\
                                      4 times
|-----------------------------------|/
|-----------------------------------|
|-----------------------------------|
|--10--10--10--10--10--10--7-7-7-7--|
|-----------------------------------|
|-----------------------------------|
|-----------------------------------|

|-----------------------------------|
|-----------------------------------|
|--------------------------7-7-7-7--|
|--5~-------------------------------|
|-----------------------------------|
|-----------------------------------|
|-----------------------------------|

|-----------------------------------|
|-----------------------------------|
|-----------------------------------|
|--10--10--10--10--10--10--10--10---|
|-----------------------------------|
|-----------------------------------|
|-----------------------------------|

|-----------------------------------|
|-----------------------------------|
|-----------------------------------|
|-----------------------------------|
|----------------------3-3-3-3-3-3--|
|----------------------3-3-3-3-3-3--|
|--5-3-5-3-5-6-5-3-5-3-3-3-3-3-3-3--|
                       - - - - - -

|-----------------------------------|
|-----------------------------------|
|-----------------------------------|
|-----------------------------------|
|----------------------3-3-3-3------|
|----------------------3-3-3-3-3*---|
|--5-3-5-3-5-6-5-3-5-3-3-3-3-3------|
                       - - - -

|-----------------------------------|
|-----------------------------------|
|-----------------------------------|
|-----------------------------------|
|----------------------3-3-3-3-3-3--|
|----------------------3-3-3-3-3-3--|
|--5-3-5-3-5-6-5-3-5-3-3-3-3-3-3-3--|
                       - - - - - -

|-----------------------------------|
|-----------------------------------|
|-----------------------------------|
|-----------------------------------|
|----------------------3-3-3-3-3-3--|
|----------------------3-3-3-3-3-3--|
|--5-3-5-3-5-6-5-3-5-3-3-3-3-3-3-3--|
                       - - - - - -

|-----------------------------------|
|-----------------------------------|
|-------------(5)-------------------|
|-----------~-(5)--3---3------------| 3 times
|--5---5---5~------3---3---3~-------|
|--5---5---3~------1---1---3~-------|
|--5---5---5~--------------3~-------|

|---------------------------------------------|
|---------------------------------------------|
|-------------(5)-----------------------------|
|-----------~-(5)-----------------------------|
|--5---5---5~-----3--3-3-3--3--3-3-3--1--1-1--|
|--5---5---3~-----3--3-3-3--3--3-3-3--1--1-1--|
|--5---5---5~-----3--3-3-3--3--3-3-3--1--1-1--|
                  -         -         -

|-----------------------------------|
|-----------------------------------|
|-----------------------------------|
|--------------------------7-7-7-7--|
|--5~-------------------------------|
|-----------------------------------|
|-----------------------------------|
                                      4 times
|-----------------------------------|/
|-----------------------------------|
|-----------------------------------|
|--10--10--10--10--10--10--7-7-7-7--|
|-----------------------------------|
|-----------------------------------|
|-----------------------------------|

|-----------------------------------|
|-----------------------------------|
|--------------------------7-7-7-7--|
|--5~-------------------------------|
|-----------------------------------|
|-----------------------------------|
|-----------------------------------|

|-----------------------------------|
|-----------------------------------|
|-----------------------------------|
|--10--10--10--10--10--10--10--10---|
|-----------------------------------|
|-----------------------------------|
|-----------------------------------|

|-----------------------------------|
|-----------------------------------|
|-----------------------------------|
|-----------------------------------|
|----------------------3-3-3-3-3-3--|
|----------------------3-3-3-3-3-3--|
|--5-3-5-3-5-6-5-3-5-3-3-3-3-3-3-3--|
                       - - - - - -

|-----------------------------------|
|-----------------------------------|
|-----------------------------------|
|-----------------------------------|
|----------------------3-3-3-3------|
|----------------------3-3-3-3-3*---|
|--5-3-5-3-5-6-5-3-5-3-3-3-3-3------|
                       - - - -

|-----------------------------------|
|-----------------------------------|
|-----------------------------------|
|-----------------------------------|
|----------------------3-3-3-3-3-3--|
|----------------------3-3-3-3-3-3--|
|--5-3-5-3-5-6-5-3-5-3-3-3-3-3-3-3--|
                       - - - - - -

|-----------------------------------|
|-----------------------------------|
|-----------------------------------|
|-----------------------------------|
|----------------------3-3-3-3-3-3--|
|----------------------3-3-3-3-3-3--|
|--5-3-5-3-5-6-5-3-5-3-3-3-3-3-3-3--|
                       - - - - - -

|-----------------------------------|
|-----------------------------------|
|-------------(5)-------------------|
|-----------~-(5)--3---3------------| 3 times
|--5---5---5~------3---3---3~-------|
|--5---5---3~------1---1---3~-------|
|--5---5---5~--------------3~-------|

|---------------------------------------------|
|---------------------------------------------|
|-------------(5)-----------------------------|
|-----------~-(5)-----------------------------|
|--5---5---5~-----3--3-3-3--3--3-3-3--1--1-1--|
|--5---5---3~-----3--3-3-3--3--3-3-3--1--1-1--|
|--5---5---5~-----3--3-3-3--3--3-3-3--1--1-1--|
                  -         -         -

Bridge/Solo (whatever you wanna call it)

|---------------------------------------------------------------------------------------------------|
|---------------------------------------------------------------------------------------------------|
|---------------------------------------------------------------------------------------------------|
|--------------------------------------------------7--7--7--7--10-10-10-10-10-10-10-10-10-10-10-10--|
|--5--5--5--5--5--5--5--5--5--5--5--5--5--5--5--5---------------------------------------------------|
|---------------------------------------------------------------------------------------------------|
|---------------------------------------------------------------------------------------------------|

|---------------------------------------------------------------------------------------------------|
|---------------------------------------------------------------------------------------------------|
|---------------------------------------------------------------------------------------------------|
|--10-10-10-10---------------------------------------------------------------7-7-7-7-7-7-7-7-3-3-3--|
|---------------5-5-5-5-5-5-5-5-5-5-5-5-5-5-5-5-5-5-5-5-5-5-5-5-5-5-5-5-5-5-5-----------------------|
|---------------------------------------------------------------------------------------------------|
|---------------------------------------------------------------------------------------------------|

|---------------------------------------------------------------------------------------------------|
|---------------------------------------------------------------------------------------------------|
|---------------------------------------------------------------------------------------------------|
|-3-3-3-3-3-3-3-3-3-3-3-3-3-3-3-3-3-3-3-3-3-3-3-3-3-3-3-3-3---7-7-7-7-7-7-7-7-4-4-4-4-4-4-4-4-4-4-4-|
|---------------------------------------------------------------------------------------------------|
|---------------------------------------------------------------------------------------------------|
|---------------------------------------------------------------------------------------------------|

|-------------------------------------------------------------8-8-8-8-8-8-8-8-8-8-8-8-8-8-8-8-8-8-8-|
|---------------------------------------------------------------------------------------------------|
|---------------------------------------------------------------------------------------------------|
|4-4-4-4-4-4-4-4-4-4-4-4-4-4-4-4-4-4-4-4-4-7-7-7-7-7-7-7-7------------------------------------------|
|---------------------------------------------------------------------------------------------------|
|---------------------------------------------------------------------------------------------------|
|---------------------------------------------------------------------------------------------------|

|--8-8-8-8-8-8-8-8-8-8-8-8-8--|
|-----------------------------|
|-----------------------------|
|-----------------------------|
|-----------------------------|
|-----------------------------|
|-----------------------------|

|-----------------------------------|
|-----------------------------------|
|-----------------------------------|
|-----------------------------------|
|----------------------3-3-3-3------|
|----------------------3-3-3-3-3*3*-|
|--5-3-5-3-5-6-5-3-5-3-3-3-3-3------|
                       - - - - - -

|-----------------------------------|
|-----------------------------------|
|-----------------------------------|
|-----------------------------------|
|----------------------3-3-3--------|
|----------------------3-3-3-3*--3*-|
|--5-3-5-3-5-6-5-3-5-3-3-3-3--------|
                       - - -

|-----------------------------------|
|-----------------------------------|
|-----------------------------------|
|-----------------------------------|
|----------------------3-3-3-3------|
|----------------------3-3-3-3-3*3*-|
|--3-5-3-5-6-5-3-5-5-3-3-3-3-3------|
                       - - - -

|-----------------------------------|
|-----------------------------------|
|-----------------------------------|
|-----------------------------------|
|----------------------3-3-3-3-3-3--|
|----------------------3-3-3-3-3-3--|
|--5-3-5-3-5-6-5-3-5-3-3-3-3-3-3-3--|
                       - - - - - -

|-----------------------------------|
|-----------------------------------|
|-------------(5)-------------------|
|-----------~-(5)--3---3------------| 3 times
|--5---5---5~------3---3---3~-------|
|--5---5---3~------1---1---3~-------|
|--5---5---5~--------------3~-------|

|-----------------------------------|
|-----------------------------------|
|-------------(5)-------------------|
|-----------~-(5)--3---3---5~-------| 
|--5---5---5~------3---3---5~-------|
|--5---5---3~------1---1---3~-------|
|--5---5---5~-----------------------|

|-----------------------------------|
|-----------------------------------|
|-------------(5)-------------------|
|-----------~-(5)--3---3------------| 3 times
|--5---5---5~------3---3---3~-------|
|--5---5---3~------1---1---3~-------|
|--5---5---5~--------------3~-------|

|---------------------------------------------|
|---------------------------------------------|
|-------------(5)-----------------------------|
|-----------~-(5)-----------------------------|
|--5---5---5~-----3--3-3-3--3--3-3-3--1---5~--|
|--5---5---3~-----3--3-3-3--3--3-3-3--1---5~--|
|--5---5---5~-----3--3-3-3--3--3-3-3--1---5~--|
                  -         -         -

background last chorus
|---------------------------|
|---------------------------|
|--5-7-7-5-7-7-5-7-7-5-7-7--|
|---------------------------| twice
|---------------------------|
|---------------------------|
|---------------------------|

|--------------------------------------------------|
|-----------------------------------------13--10~--|
|--9----10-------9----10----12----14--12-----------|
|----10----10------10----10------------------------|
|--------------------------------------------------|
|--------------------------------------------------|
|--------------------------------------------------|





Comments


Popular Trapt tabs & chords
Cover Up Bass Tabs
Stories 2 Bass Tabs
The Game 3 Bass Tabs
Echo Chords
Headstrong 1 Tabs
Hollowman 1 Tabs
Influence Tabs
Stand Up 2 Tabs
Still Frame 2 Tabs
The Last Tear Tabs


Song lyrics



↑ Back to top | Tablatures and chords are parodies/interpretations of the original songs. You may use it for private study, scholarship, research or language learning purposes only
© 2014 AZChords.com Contact us | Privacy policy | DMCA | Add/correct tabs | Request tabs | Top 50 tabs