» » »

Stand Up Bass tabs (ver.2)

Artists:  A B C D E F G H I J K L M N O P Q R S T U V W X Y Z # 

Stand Up Bass tabs (ver.2)

Trapt
Rating:
0/5 (0 votes)

Hard to play? Try these video lessons and learn fast.
                ------------------------------------------------------------------------------
			     Stand Up - Trapt
-------------------------------------------------------------------------------


Tuning: drop C

  Main riff/Pre-Chorus
F|----------------------------------|
C|----------------------------------|
G|----------------------------------|
C|-2p0-2p0-2h3-2p0-2p0-0-0-0-0-0-0--|

  Verse
F|--------------------------------------------------------------------------------|
C|----------5---------------------------5------------5----------------------------|
G|----------------3------------------------3--------------------------------------|
C|-7--------------------------7-------------------------7-------------------------|

  Bridge
F|-------------------------|
C|-------------------------|
G|-------------------------|
C|-2p0-2p0-2h3-2p0-repeat--|

  Chorus
F|-----------------------------------------------------------------------------|
C|-----------------------------------------------------------------------------|
G|---------3--33-33-3-3--------------------------------------------------------|
C|-2---2-2--------------5-55-5-0-0-0-0-0-0-------------------------------------|

F|-----------------------------------------|
C|-----------------------------------------|
G|---------3--33-33-3-3--------------------|
C|-2---2-2--------------0-0-0-0-0-0-0-0-0--|

Thats pretty much all of it.  Feel free to email any comments or corrections.  Thanks

| h  hammer-on
| p  pull-off
=============================================================
            
Hard to play? Try these video lessons and learn fast. | Correct




comments powered by Disqus
↑ Back to top | Tablatures and chords are parodies/interpretations of the original songs. You may use it for private study, scholarship, research or language learning purposes only