» » »

Trapt, Stand Up Tabs (ver.1)

Artists:  A B C D E F G H I J K L M N O P Q R S T U V W X Y Z # 

Stand Up Tabs (ver.1)

Trapt Tabs
Rating:
3/5 (4 votes)
Stand Up lessons Tabs too difficult? Try these video lessons and learn fast
                                                ~ = hold out
Notes:                         < >= harmonic
Andrew Zara posted this tab as a seven string tab tuned to drop A.   This can be solved
tuning the guitar to Drop C, and moving down 3 frets. I know this for a fact because I
wittnessed Simon Ormandy of Trapt play this song on a Gibson SG. Enjoy.

Tuning: Drop C
Intro: x1 For the harmonic, place ur finger finger lightly on the 
          specified string and strum. Remove ur finger and let ring.
|----------------------------|------------------------------|
|----------------------------|------------------------------|
|----------------------------|------------------------------|
|-(pick scr*pe)--------------|------------------------------|
|----------------------------|---------------------00000000-|
|->>>>>>>>-------------------|-2-0-2-0-2-3-2-0-2-0-00000000-|
                                                   ........
|----------------------------|------------------------------|
|----------------------------|------------------------------|
|-------------------------<7>|------------------------------|
|----------------------------|------------------------------|
|---------------------0000---|---------------------00000000-|
|-2-0-2-0-2-3-2-0-2-0-0000---|-2-0-2-0-2-3-2-0-2-0-00000000-|
                      ....                         ........
|----------------------------|
|----------------------------|
|----------------------------|
|---------------------0-2-0--|
|---------------------0-2-0--|
|-2-0-2-0-2-3-2-0-2-0-0-2-0--|

Verse: Clean w/ echo
|----------------------------|
|----------------------------|
|-4-44--7-7-7-7-7-7------4444|
|----------------------------|x5
|----------------------------|
|----------------------------|

Chorus: Try to play it along with the vocals,
        it makes it easier to learn.

First, the intro is played while Chris sings: "Stand Up!!!"

Then: "Walk Away...before i finish what you started!"
|-------------------------|-------------------------|
|-------------------------|-------------------------|
|-------5~-7~-------------|-------5~-7~-------------|
|-2-2-5-5~-7~-7-7-5-5-0-0-|-2-2-5-5~-7~-7-7-9-5-5-5-| x2
|-2-2-5-3~-5~-7-7-5-5-0-0-|-2-2-5-3~-5~-7-7-9-5-5-5-|
|-2-2-5-------7-7-5-5-0-0-|-2-2-5-------7-7-9-5-5-5-|

This is the part where he says, "everything, will change!!!"
|----------|
|----------|
|----------|
|-2-2--2-2-|
|-2-2--2-2-|
|-2-2--2-2-|

Verse: x5

Chorus: x2

Break:
|-------------------------------------------------------|
|-------------------------------------------------------|
|-----------------9999-12121212121212121212121212121212-|
|-7777777777777777--------------------------------------|
|-------------------------------------------------------|
|-------------------------------------------------------|

|-------------------------------------------------------|
|-------------------------------------------------------|
|--------------------------------99999999-555555555555--|
|-7777777777777777777777777777777-----------------------|
|-------------------------------------------------------|
|-------------------------------------------------------|

|-------------------------------------------------------|
|-------------------------------------------------------|
|-555555555555555555555-99999999-666666666666666666666--|
|-------------------------------------------------------|
|-------------------------------------------------------|
|-------------------------------------------------------|

|----------10(x32)--|< sorry got lazy there...
|-------------------|
|-66666666----------|
|-------------------|
|-------------------|
|-------------------|

Chorus: this time when Chris sings "Stand Up", the intro part
changes only once. I promise this is here, u rele have to listen
for it. The time during the song is (2:51-2:53). The intro part for
the last chorus is played 4 times, and he plays this odd part on the 
third time the intro is played. I will tab it all out to make it clear.
|------------------------------|---------------------------|
|------------------------------|---------------------------|
|------------------------------|------------------------<2>|
|------------------------------|---------------------------|
|---------------------00000000-|---------------------0000--|
|-2-0-2-0-2-3-2-0-2-0-00000000-|-2-0-2-0-2-3-2-0-2-0-0000--|
                      .......                        ....
vvv this is the different one vvv
|------------------------------|---------------------------|
|------------------------------|---------------------------|
|------------------------------|------------------------<7>|
|------------------------------|---------------------------|
|---------------------00000000-|---------------------0000--|
|-3-2-0-2-3-2-0-2-0-0-00000000-|-2-0-2-0-2-3-2-0-2-0-0000--|
                      ........                       ....

Chorus:2x 
On the last chorus, this is played in the background.
|-------------------------|
|-------------------------|
|-7-9-9-7-9-9-7-9-9-7-9-9-|
|-------------------------|
|-------------------------|
|-------------------------|

Ending Part:
|------------------------------------|
|-----------------------------15-12~-|
|-11--12-----11--12--14--16-14-------|
|---12--12-----12--12----------------|
|------------------------------------|
|------------------------------------|
            

comments powered by Disqus
↑ Back to top | Trapt Tabs for Stand Up. Lyrics for acoustic guitar and electric guitar. Tablatures and chords are parodies/interpretations of the original songs. You may use it for private study, scholarship, research or language learning purposes only