>
 >
Graves 2

Graves 2 Guitar Tabs

Tokyo Police Club - Graves 2 chords, tabs, tablatures, lyrics

Guitar lessons | Add/correct | Request | Top 50 tabs Artists:  A B C D E F G H I J K L M N O P Q R S T U V W X Y Z 0-9

Graves 2 Guitar Tabs – Tokyo Police Club

CD, Sheet music, Poster

Do you like Graves 2? Share with your friends now
Bass TabsTabsTabs v2
-------------------------------------------------------------------------------
		GRAVES (acoustic version) - Tokyo Police Club
-------------------------------------------------------------------------------

Tuning:Standard

***Alot of people have requested this tab, so i figured.. since i know how to play it.. 
the hell, I'll help everyone out :D****

also. I'm not good at tabbing strum patterns and timing and such so.. you'll have to 
them out for yourself D:
sorry.


        [INTRO - repeat for a while..]              [intro into verse]
e|-1--1-1---1-1-1-1--------------------------|---1--1-1--1-1-1-1-------------|
B|-1--1-1---1-1-1-1--------------------------|---3--3-3--3-3-3-3-------------|
G|-2--2-2---2-2-2-2--------------------------|---3--3-3--3-3-3-3-------------|
D|-3--3-3---3-3-3-3--------------------------|---3--3-3--3-3-3-3-------------|
A|-3--3-3---3-3-3-3--------------------------|-------------------------------|
E|-1--1-1---1-1-1-1--------------------------|-------------------------------|
                                                    [^^^^--hold last note]


	[VERSE - after intro :D..] Repeat.. [x] amount of times.
e|-1--1-1---1-1-1-1---5--5---5-5-5-5---3--3-3---3-3-3-3--3--3-3---3-3-3-3----|
B|-1--1-1---1-1-1-1---5--5---5-5-5-5---5--5-5---5-5-5-5--5--5-5---5-5-5-5----|
G|-2--2-2---2-2-2-2---5--5---5-5-5-5---5--5-5---5-5-5-5--5--5-5---5-5-5-5----|
D|-3--3-3---3-3-3-3---7--7---7-7-7-7---5--5-5---5-5-5-5--5--5-5---5-5-5-5----|
A|-3--3-3---3-3-3-3---7--7---7-7-7-7---5--5-5---5-5-5-5--5--5-5---5-5-5-5----|
E|-1--1-1---1-1-1-1---5--5---5-5-5-5---3--3-3---3-3-3-3--3--3-3---3-3-3-3----|


	[VERSE INTO CHORUS THING - repeat [x] amount of times]
e|--6--6-6---6-6-6-6---------------------------------------------------------|
B|--6--6-6---6-6-6-6---------------------------------------------------------|
G|--7--7-7---7-7-7-7---------------------------------------------------------|
D|--8--8-8---8-8-8-8---------------------------------------------------------|
A|--8--8-8---8-8-8-8---------------------------------------------------------|
E|--6--6-6---6-6-6-6---------------------------------------------------------|


	[CHORUS - and the rest of the song.] (those are 10's by the way)
e|-5--5--5-5-----------------------------6--6-6-6-6--6--8--8--8--8-----------|
B|-6--6--6-6--8--8-8-8--8-8-10-10-10-10--6--6-6-6-6--6--8--8--8--8-----------|
G|-7--7--7-7--7--7-7-7--7-7-10-10-10-10--7--7-7-7-7--7--9--9--9--9-----------|
D|-7--7--7-7--8--8-8-8--8-8-10-10-10-10--8--8-8-8-8--8--10-10-10-10----------|
A|-5--5--5-5--7--7-7-7--7-7-8--8--8--8---8--8-8-8-8--8--10-10-10-10----------|
E|---------------------------------------6--6-6-6-6--6--8--8--8--8-----------|

e|----------------------6--6-6-6-6--6--6-6-6-6--6----------------------------|
B|-10-10-10-10-10-10-10-6--6-6-6-6--6--6-6-6-6--6----------------------------|
G|-10-10-10-10-10-10-10-7--7-7-7-7--7--7-7-7-7--7----------------------------|
D|-10-10-10-10-10-10-10-8--8-8-8-8--8--8-8-8-8--8----------------------------|
A|-8--8--8--8--8--8--8--8--8-8-8-8--8--8-8-8-8--8----------------------------|
E|----------------------6--6-6-6-6--6--6-6-6-6--6----------------------------|


	[REPEAT ABOVE 2 LINES AS NECESSARY AND END WITH THE LINE BELOW]

e|-8--8---8--8--8----8--8--8--8------1---------------------------------------|
B|-8--8---8--8--8----8--8--8--8------1---------------------------------------|
G|-9--9---9--9--9----9--9--9--9------2---------------------------------------|
D|-10-10--10-10-10---10-10-10-10-----3---------------------------------------|
A|-10-10--10-10-10---10-10-10-10-----3---------------------------------------|
E|-8--8---8--8--8----8--8--8--8------1---------------------------------------|

				[again.. hold the last note.]

anyways... that's it!
comment please ;)

| /  slide up
| \  slide down
| h  hammer-on
| p  pull-off
| ~  vibrato
| +  harmonic
| x  Mute note
===============================================================================





Comments


Popular Tokyo Police Club tabs & chords
Cut Cut Paste Bass Tabs
Wait Up (Boots Of Danger) Bass Tabs
Wait Up Boots Of Danger Bass Tabs
Your English Is Good Bass Tabs
Neighbours Chords
Tessellate 2 Chords
If It Works Tabs
La Ferrassie 2 Tabs
Party In The Usa Intro Tabs
Your English Is Good Tabs


Song lyrics



↑ Back to top | Tablatures and chords are parodies/interpretations of the original songs. You may use it for private study, scholarship, research or language learning purposes only
© 2014 AZChords.com Contact us | Privacy policy | DMCA | Add/correct tabs | Request tabs | Top 50 tabs