» » »

Tokyo Police Club, Graves Bass tabs (ver.1)

Artists:  A B C D E F G H I J K L M N O P Q R S T U V W X Y Z # 

Graves Bass tabs (ver.1)

Tokyo Police Club Tabs
Rating:
5/5 (2 votes)
Graves lessons Tabs too difficult? Try these video lessons and learn fast
                GRAVES
By TOKYO POLICE CLUB

INTRO:                               x2                     x2
G|-------------------------------------|----------------------|
D|-------------------------------------|----------------------|
A|-9999-999-9999-999-8888-888-4444-444-|-9~----4~----6~-------|
E|-------------------------------------|------------------\6--|

VERSE:
G|-----------------------------------101010-----------|
D|----------11111111-111111-8888-888--------11-111111-|
A|-9999-999-------------------------------------------|
E|----------------------------------------------------|

G|--------------------------------------------|
D|----------11111111-111111-8888-888----------|
A|-9999-999--------------------------888------|
E|---------------------------------------9999-|

INTERLUDE:
G|----------------------------|
D|-----------------99999999-9-|
A|----------------------------|
E|-7-7-7-7-7-7-7-7------------|
                                     x2
G|-------------------------------------|
D|-------------------------------------|
A|-9999-999-9999-999-8888-888-4444-444-|
E|-------------------------------------|

Rest

VERSE:
G|---------------------------------------101010-----------|
D|--------------11111111-111111-8888-888--------11-111111-|
A|-----9999-999-------------------------------------------|
E|-999----------------------------------------------------|

G|--------------------------------------------|
D|----------11111111-111111-8888-888----------|
A|-9999-999--------------------------888------|
E|---------------------------------------9999-|

INTERLUDE:
G|--------------------------------|
D|-----------------999999999999-9-|
A|--------------------------------|
E|-7-7-7-7-7-7-7-7----------------|

OUTRO:                                                                   x4
G|-------------------------------------------------------------------------|
D|-------------------------------------------------------------------------|
A|-9999-999-8888-888-9999-999-2222-222-4444-444-9999-999-2222-222-2222-222-|
E|-------------------------------------------------------------------------|

G|---------------------------------------------------------|
D|---------------------------------------------------------|
A|-----------------------------------------9-9-9-9---------| x2
E|-2-2-2-2-4-4-4-4-6-6-6-6-6-6-6-6-9-9-9-9---------7-7-7-7-|
            

comments powered by Disqus
↑ Back to top | Tokyo Police Club Bass for Graves. Lyrics for acoustic guitar and electric guitar. Tablatures and chords are parodies/interpretations of the original songs. You may use it for private study, scholarship, research or language learning purposes only