» » »

Tokyo Police Club, Graves Tabs (ver.1)

Artists:  A B C D E F G H I J K L M N O P Q R S T U V W X Y Z # 

Graves Tabs (ver.1)

Tokyo Police Club Tabs
 Rating:
4.3/5 (6 votes)
Graves lessons Tabs too difficult? Try these video lessons and learn fast
1
                
Please use tab for personal use only.

I love this band and this song "Graves" from their debut album elephant shell is one of 
favourites so i thought i'd try tabbing it. But this is my first tab ever so 
criticism is probably needed.

e|--------------|
B|--------------|
G|--------------|
D|--------8-----|x34(i think its 34, but its the first 5sec)
A|--------9-----|
E|--------------|


e|--------------------|
B|--------------------|
G|---------10---------|(18x each)
D|-8-------8(x18)-----|
A|-9(x18)-------------|
E|--------------------|


(0:16)Pack your rations, pack a watch.............(11's and 10's not 1's)
e|-----------------------------------------------------------|
B|-----------------------------------------------------------|
G|-11-10----10101011----11-10---------------1111----1010-----|
D|-8--8-----8-8-8-8-----8--8-----88-1111-88------88------88--|
A|-----------------------------99----------------------------|
E|-----------------------------------------------------------|

e|-----------------------------------------------------------|
B|-----------------------------------------------------------|
G|-11-10----------------1111----1010-------11-10----10101011-|
D|-8--8------88-1111-88------88------88----8--8-----8-8-8-8--|
A|---------99------------------------------------------------|
E|-----------------------------------------------------------|


e|-----------------------------|
B|-----------------------------|
G|-11(x8)-13(x4)-15(x4)-10(x8)-|
D|-----------------------------|
A|-----------------------------|
E|-----------------------------|


(0:44)Right after "...a thousand sun will set and rise"
e|--------------------|
B|--------------------|
G|---------10---------|(18x each)
D|-8-------8(x18)-----|
A|-9(x18)-------------|
E|--------------------|


(1:00)Right after "...Our hair tangled up in hers"
e|-----------------------|
B|-----------------------|
G|-10101011---10101011---|
D|-8-8-8-8----8-8-8-8----|
A|-----------------------|
E|-----------------------|


(still 11's and 10's not 1's)
e|------------------------------------------------------|
B|------------------------------------------------------|
G|-11-10----------------1111----1010----11-10---10101011|
D|-8--8------88-1111-88------88---------8--8----8-8-8-8-|
A|---------99-------------------------------------------|
E|------------------------------------------------------|


e|-----------------------------|
B|-----------------------------|
G|-11(x8)-13(x4)-15(x4)-10(x8)-|
D|-----------------------------|
A|-----------------------------|
E|-----------------------------|


(1:34) "...you traded me for the love song"
e|----------------------------------------------------------|
B|----------------------------------------------------------|
G|----------------------------------------------------------|
D|--8-8-8-8-8-8-8-8----8-8-8-8--8-8-8-8-8-8-8-8-------------|(x2)
A|-9-9-9-9-9-9-9-9---8-8-8-8---9-9-9-9-9-9-9-9--------------|
E|----------------------------------------------------------|


e|----------------------|
B|-14--14-----14-9-11---|
G|---11--11-11----------|
D|----------------------|(x7)
A|----------------------|
E|----------------------|

e|----------------------|
B|-14--14-----14--------|
G|---11--11-11----------|
D|----------------------|
A|----------------------|
E|----------------------|
            
Submit corrections

comments powered by Disqus
↑ Back to top | Tokyo Police Club Tabs for Graves. Lyrics for acoustic guitar and electric guitar. 1 Tablatures and chords are parodies/interpretations of the original songs. You may use it for private study, scholarship, research or language learning purposes only