» » »

Tickle Me Pink, Typical Tabs (ver.2)

Artists:  A B C D E F G H I J K L M N O P Q R S T U V W X Y Z # 

Typical Tabs (ver.2)

Tickle Me Pink Tabs
Rating:
5/5 (5 votes)
Typical lessons Tabs too difficult? Try these video lessons and learn fast
                I heard this song and no tab was made yet for any pickle me pink song, so this is 
I threw together in 20 minutes and it's probably going to get revised. I know the base 
is correct, the minor details I'm not positive on.

-Intro-

e-------------------------------------------------------------------------|
B-------------------------------------------------------------------6-4-2-|
G-------8-8-8-------8-----------8-8-8-------8-----6-6-6-6-6-6-6-6-6-6-4-2-|
D-8-8-8-------8-8-8---6/4-4-4-4-------4-4-4---4/6-6-6-6-------6-6-6-------|
A-8-8-8-------8-8-8---6/4-4-4-4-------4-4-4---4/6-4-4-4-------4-4-4-------|
E-6-6-6-------6-6-6-------2-2-2-------2-2-2-------------------------------|

e-----------------|
B-----------------|
G-----------------|
D-6-6-6-6-4-4-4-4-|
A-6-6-6-6-4-4-4-4-|
E-4-4-4-4-2-2-2-2-|

-Verse-
e-----------------------------------------------------------------------|
B-----------------------------------------------------------------------|
G-------6-----------6-----------6-----------6---------------------------|
D-----6---6-------6---6-------6---6-------6---6---------8-----------8---|
A---4-------4---4-------4---4-------4---4-------4-----8---8-------8---8-|
E-4-----------4-----------4-----------4-----------4/6-------6/4/6-------|

e-------------------------|
B-------------------------|
G-------------------------|
D-------4-2-0-------4-2-0-|
A-----4-----------4-------|
E-0-2---------0-2---------|

-"on the coldest night"-
e--------------------------------------------------|
B--------------------------------------------------|
G--------------------------------------------------|
D-8-8-8-8------8-8-8-8------4-4-4-4-----4-4-4-4----|
A-8-8-8-8------8-8-8-8------4-4-4-4-----4-4-4-4----|
E-6-6-6-6------6-6-6-6------2-2-2-2-----2-2-2-2----|

e---------------------------------------------|
B---------------------------------------------|
G-6-6-6-8-8-8-10-10-10-10/8/6-----------------|
D-6-6-6-8-8-8-10-10-10-10/8/6-6-6-6-6-6-6-6-6-|
A-4-4-4-6-6-6-8--8--8--8/ 6/4-6-6-6-6-6-6-6-6-|
E-----------------------------4-4-4-4-4-4-4-4-|

-Chorus-
e-----------------------------------------------------------------|
B-----------------------------------------------------------------|
G---------------------------------6-6-6-6-6-6-6-6-----------------|
D-8-8-8-8-8-8-8-8-4-4-4-4-4-4-4-4-6-6-6-6-6-6-6-6-6-6-6-6-4-4-4-4-|
A-8-8-8-8-8-8-8-8-4-4-4-4-4-4-4-4-4-4-4-4-4-4-4-4-6-6-6-6-4-4-4-4-|
E-6-6-6-6-6-6-6-6-2-2-2-2-2-2-2-2-----------------4-4-4-4-2-2-2-2-|

-Solo-
e-9h5h7h5 (repeat a bunch)
B---------|
G---------|
D---------|
A---------|
E---------|
            
Submit corrections

comments powered by Disqus
↑ Back to top | Tickle Me Pink Tabs for Typical. Lyrics for acoustic guitar and electric guitar. Tablatures and chords are parodies/interpretations of the original songs. You may use it for private study, scholarship, research or language learning purposes only