» » »

Tickle Me Pink, Typical Bass tabs (ver.1)

Artists:  A B C D E F G H I J K L M N O P Q R S T U V W X Y Z # 

Typical Bass tabs (ver.1)

Tickle Me Pink Tabs
 Rating:
4/5 (7 votes)
Typical lessons Tabs too difficult? Try these video lessons and learn fast
1
                Typical by Tickle Me Pink
Bass Tab by sk8rat

INTRO
Gb|-------4-4-4-------4-----------4-4-4-------4-----|
Db|-------------------------------------------------|
Ab|-2-2-2-------2-2-2---2-0-------------------------|
Eb|-------------------------3-3-3-------3-3-3---3-7-|

Gb|--------------------------------------------------|
Db|--------------------------------------------------|
Ab|-------4-4-4-------4-2-0--------------------------|
Eb|-5-5-5-------5-5-5-------5-5-5-5-5-5-2-2-2-2-2-2--|

VERSE (x2)
Gb|------------------------------------------------------|
Db|------------------------------------------------------|
Ab|-9------9------9------9/12\7------7-7------7------7-7-|
Eb|------------------------------------------------------|

PRE-CHORUS
Gb|------------------------------------------------|
Db|------------------------------------------------|
Ab|-2-2-2-2------2-2-2-2---------------------------|
Eb|---------------------------3-3-3-3------3-3-3-3-|

Gb|-------------------------------------------|
Db|-------------------------------------------|
Ab|-5-5-5-5-5-5-5-5-5-5-5-5-5-5---------------|
Eb|-----------------------------5-5-5-5-5-5-5-|

CHORUS
Gb|-------------------------------------------------|
Db|-------------------------------------------------|
Ab|-2-2-2-2-2-2-2-2-2-2-2-2-------------------------|
Eb|-------------------------3-3-3-3-3-3-3-3-3-3-3-3-|

Gb|-------------------------------------------------|
Db|-------------------------------------------------|
Ab|-5-5-5-5-5-5-5-5-5-5-5-5-------------------------|
Eb|-------------------------5-5-5-5-5-5-2-2-2-2-2-2-|

VERSE
Gb|------------------------------------------------------|
Db|------------------------------------------------------|
Ab|-9------9------9------9/12\7------7-7------7------7-7-|
Eb|------------------------------------------------------|

Gb|------------------------------------------------------|
Db|---------------9-11-10-8------------------------------|
Ab|-9------9----------------9-7------7-7------7------7-7-|
Eb|------------------------------------------------------|

PRE-CHORUS
Gb|------------------------------------------------|
Db|------------------------------------------------|
Ab|-2-2-2-2------2-2-2-2---------------------------|
Eb|---------------------------3-3-3-3------3-3-3-3-|

Gb|-------------------------------------------|
Db|-------------------------------------------|
Ab|-5-5-5-5-5-5-5-5-5-5-5-5-5-5---------------|
Eb|-----------------------------5-5-5-5-5-5-5-|

CHORUS
Gb|-------------------------------------------------|
Db|-------------------------------------------------|
Ab|-2-2-2-2-2-2-2-2-2-2-2-2-------------------------|
Eb|-------------------------3-3-3-3-3-3-3-3-3-3-3-3-|

Gb|-------------------------------------------------|
Db|-------------------------------------------------|
Ab|-5-5-5-5-5-5-5-5-5-5-5-5-------------------------|
Eb|-------------------------5-5-5-5-5-5-2-2-2-2-2-2-|

Gb|-------------------------------------------------|
Db|-------------------------------------------------|
Ab|-2-2-2-2-2-2-2-2-2-2-2-2-------------------------|
Eb|-------------------------3-3-3-3-3-3-3-3-3-3-3-3-|

Gb|-------------------------------------------|
Db|-------------------------------------------|
Ab|-5-5-5-5-5-5-5-5-5-5-5-5-5-5---------------|
Eb|-----------------------------5-5-5-5-5-5-5-|

Bridge
Gb|-------4-4-4-------4-4-4-------4-4-4-------------|
Db|-------------------------------------------------|
Ab|-2-2-2-------2-2-2-------2-2-2-------2-2-2-0-0-0-|
Eb|-------------------------------------------------|

Gb|-------4-4-4-------4-4-4-------4-4-4-------------|
Db|-------------------------------------------------|
Ab|-2-2-2-------2-2-2-------2-2-2-------2-2-2-2-2-2-|
Eb|-------------------------------------------------|

PRE-CHORUS
Gb|------------------------------------------------|
Db|------------------------------------------------|
Ab|-2-2-2-2------2-2-2-2---------------------------|
Eb|---------------------------3-3-3-3------3-3-3-3-|

Gb|-------------------------------------------|
Db|-------------------------------------------|
Ab|-5-5-5-5-5-5-5-5-5-5-5-5-5-5---------------|
Eb|-----------------------------5-5-5-5-5-5-5-|

CHORUS
Gb|-------------------------------------------------|
Db|-------------------------------------------------|
Ab|-2-2-2-2-2-2-2-2-2-2-2-2-------------------------|
Eb|-------------------------3-3-3-3-3-3-3-3-3-3-3-3-|

Gb|-------------------------------------------------|
Db|-------------------------------------------------|
Ab|-5-5-5-5-5-5-5-5-5-5-5-5-------------------------|
Eb|-------------------------5-5-5-5-5-5-2-2-2-2-2-2-|

Gb|-------------------------------------------------|
Db|-------------------------------------------------|
Ab|-2-2-2-2-2-2-2-2-2-2-2-2-------------------------|
Eb|-------------------------3-3-3-3-3-3-3-3-3-3-3-3-|

Gb|-------------------------------------------------|
Db|-------------------------------------------------|
Ab|-5-5-5-5-5-5-5-5-5-5-5-5-------------------------|
Eb|-------------------------5-5-5-5-5-5-2-2-2-2-2-2-|

End
Gb|-------4-4-4-|
Db|-------------|
Ab|-2-2-2-------|
Eb|-------------|

This is my first tab, so go easy.

It’s not perfect, but it sounds pretty damn good when you play it along with the song.

Listen for timing and sh*t.

/ = slide up or down.
            
Submit corrections

comments powered by Disqus
↑ Back to top | Tickle Me Pink Bass for Typical. Lyrics for acoustic guitar and electric guitar. 1 Tablatures and chords are parodies/interpretations of the original songs. You may use it for private study, scholarship, research or language learning purposes only