» » »

Tickle Me Pink, Typical Tabs (ver.1)

Artists:  A B C D E F G H I J K L M N O P Q R S T U V W X Y Z # 

Typical Tabs (ver.1)

Tickle Me Pink Tabs
Rating:
4/5 (3 votes)
Typical lessons Tabs too difficult? Try these video lessons and learn fast
                -------------------------------------------------------------------------------
-------------------------------------------------------------------------------


Tuning: Eb Standard
Time: 6/8

Intro

    Bb5                    Ab5 Gb5                    Ab5
eb|-------------|-------------|-------------|-------------|
Bb|-------------|-------------|-------------|-------------|
Gb|-------4-4-4-|-------4-----|-------4-4-4-|-------4-----|
Db|-4-4-4-------|-4-4-4---4-2-|-------------|-------------|
Ab|-2-2-2-------|-2-2-2---2-0-|-5-5-5-------|-5-5-5---5-7-|
Eb|-------------|-------------|-3-3-3-------|-3-3-3---3-5-|

    Db5                         Ab            F5
eb|-------------|-------------|-------------|-------------|
Bb|-------------|-------------|-------------|-------------|
Gb|-------------|-------------|-------------|-------------|
Db|-7-7-7\4-4-4-|-7-7-7\4-2-0-|-2-2-2-2-2-2-|-4-4-4-4-4-4-|
Ab|-5-5-5-------|-5-5-5-------|-4-4-4-4-4-4-|-4-4-4-4-4-4-|
Eb|-------------|-------------|-5-5-5-5-5-5-|-2-2-2-2-2-2-|


Verse x 2

    Dbmaj7
eb|-------------|-------------|-------------|-------------|
Bb|-------------|-------------|-------------|-------------|
Gb|-------6-----|-------7-----|-------6-----|-------7-----|
Db|---4-4---4-4-|---4-4---4-4-|---4-4---4-4-|---4-4---4-4-|
Ab|-5-----------|-5-----------|-5-----------|-5-----------|
Eb|-------------|-------------|-------------|-------------|

    Bbm
eb|-------------|-------------|-------------|-------------|
Bb|-------------|-------------|-------------|-------------|
Gb|-------7-----|-------7-----|-------4-2-0-|-------------|
Db|---4-4---4-4-|---4-4---4-4-|---4-4-------|-4-----------|
Ab|-------------|-------------|-------------|-------------|
Eb|-7-----------|-7-----------|-7-----------|-------------|


Pre-chorus

    Bb5                         Gb5
eb|-------------|-------------|-------------|-------------|
Bb|-------------|-------------|-------------|-------------|
Gb|-4-4-4-4-----|-4-4-4-4-----|-------------|-------------|
Db|-4-4-4-4-----|-4-4-4-4-----|-5-5-5-5-----|-5-5-5-5-----|
Ab|-2-2-2-2-----|-2-2-2-2-----|-5-5-5-5-----|-5-5-5-5-----|
Eb|-------------|-------------|-3-3-3-3-----|-3-3-3-3-----|

    Db5                             Ab5
eb|-------------|-----------------|-------------|---------|
Bb|-------------|-----------------|-------------|---------|
Gb|-7-7-7-7-7-7-|-11-111111-9-7-7-|-------------|---------|
Db|-7-7-7-7-7-7-|-x--x-x-x--x-x-x-|-7-7-7-7-7-7-|-7-------|
Ab|-5-5-5-5-5-5-|-9--9-9-9--7-5-5-|-7-7-7-7-7-7-|-7-------|
Eb|-------------|-----------------|-5-5-5-5-5-5-|-5-------|


Chorus
   
    Bb5                         Gb5
eb|-------------|-------------|-------------|-------------|
Bb|-------------|-------------|-------------|-------------|
Gb|-4-4-4-4-4-4-|-4-4-4-4-4-4-|-------------|-------------|
Db|-4-4-4-4-4-4-|-4-4-4-4-4-4-|-5-5-5-5-5-5-|-5-5-5-5-5-5-|
Ab|-2-2-2-2-2-2-|-2-2-2-2-2-2-|-5-5-5-5-5-5-|-5-5-5-5-5-5-|
Eb|-------------|-------------|-3-3-3-3-3-3-|-3-3-3-3-3-3-|

    Db5                         Ab5           F5
eb|-------------|-------------|-------------|-------------|
Bb|-------------|-------------|-------------|-------------|
Gb|-7-7-7-7-7-7-|-7-7-7-7-7-7-|-------------|-------------|
Db|-7-7-7-7-7-7-|-7-7-7-7-7-7-|-7-7-7-7-7-7-|-4-4-4-4-4-4-|
Ab|-5-5-5-5-5-5-|-5-5-5-5-5-5-|-7-7-7-7-7-7-|-4-4-4-4-4-4-|
Eb|-------------|-------------|-5-5-5-5-5-5-|-2-2-2-2-2-2-|

Repeat Verse x2

Repeat Pre-Chorus

Repeat Chorus w/ this extension

    Bb5                         Gb5
eb|-------------|-------------|-------------|-------------|
Bb|-------------|-------------|-------------|-------------|
Gb|-4-4-4-4-4-4-|-4-4-4-4-4-4-|-------------|-------------|
Db|-4-4-4-4-4-4-|-4-4-4-4-4-4-|-5-5-5-5-5-5-|-5-5-5-5-5-5-|
Ab|-2-2-2-2-2-2-|-2-2-2-2-2-2-|-5-5-5-5-5-5-|-5-5-5-5-5-5-|
Eb|-------------|-------------|-3-3-3-3-3-3-|-3-3-3-3-3-3-|

    Db5                             Ab5
eb|-------------|-----------------|-------------|------------------|
Bb|-------------|-----------------|-------------|------------------|
Gb|-7-7-7-7-7-7-|-11-111111-9-7-7-|-------------|-11-11-11-9-14-14-|
Db|-7-7-7-7-7-7-|-x--x-x-x--x-x-x-|-7-7-7-7-7-7-|-x--x--x--x-x--x--|
Ab|-5-5-5-5-5-5-|-9--9-9-9--7-5-5-|-7-7-7-7-7-7-|-9--9--9--7-12-12-|
Eb|-------------|-----------------|-5-5-5-5-5-5-|------------------|


Guitar Leads

   Guitar I
eb|-------------------------------|-------------------------------|
Bb|-15p0-14p0-12p0-15p0-14p0-12p0-|-15p0-14p0-12p0-15p0-14p0-12p0-|
Gb|-------------------------------|-------------------------------|
Db|-------------------------------|-------------------------------|
Ab|-------------------------------|-------------------------------|
Eb|-------------------------------|-------------------------------|

eb|-------------------------------|-------------------------|
Bb|-15p0-14p0-12p0-15p0-14p0-12p0-|-15p0-14p0-12p0-12-12-12-|
Gb|-------------------------------|-------------------------|
Db|-------------------------------|-------------------------|
Ab|-------------------------------|-------------------------|
Eb|-------------------------------|-------------------------|

    Guitar II
eb|-------------------------|-------------------------|
Bb|-6p0-5p0-3p0-6p0-5p0-4p0-|-6p0-5p0-3p0-6p0-5p0-4p0-|
Gb|-------------------------|-------------------------|
Db|-------------------------|-------------------------|
Ab|-------------------------|-------------------------|
Eb|-------------------------|-------------------------|

eb|-------------------------|----------------------|
Bb|-6p0-5p0-3p0-6p0-5p0-4p0-|-6p0-5p0-3p0-3--3--3--|
Gb|-------------------------|----------------------|
Db|-------------------------|----------------------|
Ab|-------------------------|----------------------|
Eb|-------------------------|----------------------|


Pre-chorus

eb|---| 
Bb|---| 
Gb|---| Just play the Bb note until the chorus
Db|---| 
Ab|---| 
Eb|-7-| 

Repeat Pre-Chorus

Repeat Chorus w/ Extension


End on

    Bb5
eb|-------------|
Bb|-------------|
Gb|-------4-4-4-|
Db|-4-4-4-------|
Ab|-2-2-2-------|
Eb|-------------|
            
Submit corrections

comments powered by Disqus
↑ Back to top | Tickle Me Pink Tabs for Typical. Lyrics for acoustic guitar and electric guitar. Tablatures and chords are parodies/interpretations of the original songs. You may use it for private study, scholarship, research or language learning purposes only